Log in

One click and you are in

Login with Facebook Login with Google

Why sign up and log in

Guitar Tabs Explorer
Ben Harper tabs for Power of the gospel

Guitar tabs with lyrics

This is how I play the inrto and it sounds right, there is a in a standard

tuning.  It is the intro off the Live From Mars CD and sounds best on an
accoustic.
|---------0--|---------x--|------------|---------x--|--------0---|
|-----0---1--|-0-------x--|------------|---------x--|--------1-1p0|
|-2-------0--|-----2---0--|------------|---------0--|--------0---|
|---------2--|---------2--|-4---2---1--|-2---4---2--|-4--2---2---|
|---------3--|---------2--|---------2--|---------2--|--------3---|
|---------x--|---------0--|------------|---------0--|--------x---|

|-----x------|------------|------------|------------|------------|
|-----x------|------------|------------|------------|------------|
|-2---0------|------0-----|------------|------------|------------|
|-----2---4--|-2--------1-|-2h4--2h4-2-|------------|------------|
|-----2------|-----2------|------------|------------|------------|
|-----0------|---------3--|------------|------------|------------|
(repeat four times with variatoins on last two frames)

|------------|------------|------------|------------|------------|
|------------|-----1---1p0|------------|------------|------------|
|------------|------------|-----4---4p2|-----2---2p0|------------|
|-----2---2p0|------------|------------|-0----------|-----2---2p0|
|------------|-2----------|------------|------------|------------|
|-0----------|------------|-3----------|------------|-0----------|

|------------|------------|------------|------------|------------|
|-----1---1p0|------------|------------|------------|------------|
|------------|-----4---4p2|-----2---2p0|------------|------------|
|------------|------------|-0----------|-----5---6p5|-----2h4-2h4|
|-2----------|------------|------------|-3----------|-2----------|
|------------|-3----------|------------|------------|------------|

|------------|------------|------------|------------|------------|
|------------|--------0-0-|--------1-1-|--------0-0-|--------1---|
|------------|--------1---|--------2---|--------1---|--------2---|
|-2---1-2----|-1-2----2---|-1-2----2---|-1-2----2---|-1-2----2---|
|------------|--------2---|--------0---|--------2---|--------0---|
|----------0-|-----0------|-----0------|-----0------|-----0------|
(repeat once)

|------------|------------|------------|------------|------------|
|------------|------------|------------|------------|------------|
|--------2-2-|--------1-1-|--------2-2-|--------1---|--------2-2-|
|-1-2----2---|-1-2----2---|-1-2----2---|-1-2----2---|-1-2----2---|
|--------0---|--------2---|--------0---|--------2---|--------0---|
|-----0------|-----0------|-----0------|-----0------|-----0------|

|------------|------------|------------|------------|------------|
|------------|------------|------------|------------|------------|
|--------1---|------------|------------|------------|------------|
|-1-2----2---|-1-2--2-----|------------|------------|------------|
|--------2---|---------2--|----2-------|------------|------------|
|-----0------|------------|-3------0---|------------|------------|

|---------0--|---------x--|------------|---------x--|--------0---|
|-----0---1--|-0-------x--|------------|---------x--|--------1-1p0|
|-2-------0--|-----2---0--|------------|---------0--|--------0---|
|---------2--|---------2--|-4---2---1--|-2---4---2--|-4--2---2---|
|---------3--|---------2--|---------2--|---------2--|--------3---|
|---------x--|---------0--|------------|---------0--|--------x---|

|-----x------|------------|------------|------------|------------|
|-----x------|------------|------------|------------|------------|
|-2---0------|------0-----|------------|------------|------------|
|-----2---4--|-2--------1-|-2h4--2h4-2-|------------|------------|
|-----2------|-----2------|------------|------------|------------|
|-----0------|---------3--|------------|------------|------------|
(repeat twice with varaitoins on last two frames)



        Ben Harper
     	Power of the Gospel
        live solo acoustic version from "Live From Mars"
        tabbed by Scott Abbott (abbott_scott@hotmail.com)
	Added to and re-worked by Matthew Brodie

Notes: where you see a strummed chord in the instrumental, it is actually
played as a stroke/trill, there's also a lot of hammer-ons and pull-offs.
After you've worked out the fingering you might like to know the basic
progression is:
 rhythm 1
 rhythm 2
 rhythm 3
 Rhythm 1

A chord diagramE minorEm intro 4 barres


Verse1:
Em*,C,Dsus2.Em
Em*,C,Dsus2.Em
Em*,C,Dsus2.Em
Em*,C,Dsus2.Em


Chorus:
Em*,Em,Em*,Bm
Em,C,Bm,Em
Bm,Em

x3
__________________________________________________

  Rhythm 1:

  A chord diagramE MajorE|----------------------------------------------|
  A chord diagramBB|-----0--1--0----------------------------------|
  A chord diagramG+G|---2----0-------2--0------------------0-------|
  A chord diagramD MajorD|--------2--------------4--2--1--2--4-----4--2-|
  A chord diagramA augmentedA|--------3--------------------2----------------|
  A chord diagramE MajorE|-------------------0------------------0-------|

  A chord diagramE MajorE|----------------------------------------------|
  A chord diagramBB|-------1--0-----------------------------------|
  A chord diagramG+G|-------0-------2--0---------------------------|
  A chord diagramD MajorD|-------2--------------4--2---1-----2----------|
  A chord diagramA augmentedA|-------3---------------------2-----0----------|
  A chord diagramE MajorE|------------------0---------------------------|

  A chord diagramE MajorE|----------------------------------------------|
  A chord diagramBB|-----0--1--0----------------------------------|
  A chord diagramG+G|--------0-------2--0------------------0-------|
  A chord diagramD MajorD|--------2--------------4--2--1--2--4-----4--2-|
  A chord diagramA augmentedA|--------3--------------------2----------------|
  A chord diagramE MajorE|-------------------0------------------0-------|

  A chord diagramE MajorE|----------------------------------------------|
  A chord diagramBB|---1--0---------------------------------------|
  A chord diagramG+G|---0-------2--0----------0--------------------|
  A chord diagramD MajorD|---2--------------4--2-------1-----2p1h2------|
  A chord diagramA augmentedA|---3--------------------3---2-----------------|
  A chord diagramE MajorE|--------------0------------------0------------|


  A chord diagramE MajorE|----------------------------------------------|
  A chord diagramBB|-----0--1--0----------------------------------|
  A chord diagramG+G|---2----0-------2--0------------------0-------|
  A chord diagramD MajorD|--------2--------------4--2--1--2--4-----4--2-|
  A chord diagramA augmentedA|--------3--------------------2----------------|
  A chord diagramE MajorE|-------------------0------------------0-------|

  A chord diagramE MajorE|----------------------------------------------|
  A chord diagramBB|-------1--0-----------------------------------|
  A chord diagramG+G|-------0-------2--0---------------------------|
  A chord diagramD MajorD|-------2--------------4--2---1-----2----------|
  A chord diagramA augmentedA|-------3---------------------2-----0----------|
  A chord diagramE MajorE|------------------0---------------------------|

  A chord diagramE MajorE|----------------------------------------------|
  A chord diagramBB|-----0--1--0----------------------------------|
  A chord diagramG+G|--------0-------2--0------------------0-------|
  A chord diagramD MajorD|--------2--------------4--2--1--2--4-----4--2-|
  A chord diagramA augmentedA|--------3--------------------2----------------|
  A chord diagramE MajorE|-------------------0------------------0-------|

  A chord diagramE MajorE|----------------------------------------------|
  A chord diagramBB|---1--0---------------------------------------|
  A chord diagramG+G|---0-------2--0----------0--------------------|
  A chord diagramD MajorD|---2--------------4--2-------1-----2p1h2------|
  A chord diagramA augmentedA|---3--------------------3---2-----------------|
  A chord diagramE MajorE|--------------0------------------0------------|


  Rhythm 2:

  A chord diagramE MajorE|------------------------------------------------------------|
  A chord diagramBB|------------------------------------------------------------|
  A chord diagramG+G|------------------5-5p0-----4-4p0-------2-2p0---------------|
  A chord diagramD MajorD|------2-2p0-------------------------0-----------------------|
  A chord diagramA augmentedA|---------------3--------------------------------------------|
  A chord diagramE MajorE|---0----------------------3---------------------------------|

  A chord diagramE MajorE|------------------------------------------------------------|
  A chord diagramBB|------------------------------------------------------------|
  A chord diagramG+G|------------------5-5p0-----4-4p0-------2-2p0---------------|
  A chord diagramD MajorD|------2-2p0-------------------------0-----------------------|
  A chord diagramA augmentedA|---------------3--------------------------------------------|
  A chord diagramE MajorE|---0----------------------3---------------------------------|

  A chord diagramE MajorE|------------------------------------------------------------|
  A chord diagramBB|------------------------------------------------------------|
  A chord diagramG+G|------------------5-5p0-----4-4p0-------2-2p0---------------|
  A chord diagramD MajorD|------2-2p0-------------------------0-----------------------|
  A chord diagramA augmentedA|---------------3--------------------------------------------|
  A chord diagramE MajorE|---0----------------------3---------------------------------|

  A chord diagramE MajorE|--------------------------------------------|
  A chord diagramBB|--------------------------------------------|
  A chord diagramG+G|-----0-0------------------------------------|
  A chord diagramD MajorD|--------------4/5\4-5-2-----1-2---2---------|
  A chord diagramA augmentedA|---3------2---------------------------------|
  A chord diagramE MajorE|----------------------------------0---------|

Rhythm 3:

  A chord diagramE MajorE|-------------------------------------------------------|
  A chord diagramBB|---------0-0----------0-0---------1-1----------0-------|
  A chord diagramG+G|---------0------------0-----------2------------0-------|
  A chord diagramD MajorD|---1-2---2------1-2---2------1-2--2------1-2---2-------|
  A chord diagramA augmentedA|---------x------------x-----------0------------x-------|
  A chord diagramE MajorE|---------0------------0------------------------0-------|

  A chord diagramE MajorE|-------------------------------------------------------|
  A chord diagramBB|---------0-0----------0-0---------1-1----------0-------|
  A chord diagramG+G|---------0------------0-----------2------------0-------|
  A chord diagramD MajorD|---1-2---2------1-2---2------1-2--2------1-2---2-------|
  A chord diagramA augmentedA|---------x------------x-----------0------------x-------|
  A chord diagramE MajorE|---------0------------0------------------------0-------|

  A chord diagramE MajorE|-------------------------------------------------------|
  A chord diagramBB|---------0-0----------0-0---------1-1----------0-------|
  A chord diagramG+G|---------0------------0-----------2------------0-------|
  A chord diagramD MajorD|---1-2---2------1-2---2------1-2--2------1-2---2-------|
  A chord diagramA augmentedA|---------x------------x-----------0------------x-------|
  A chord diagramE MajorE|---------0------------0------------------------0-------|

  A chord diagramE MajorE|--------------------------------------------------------|
  A chord diagramBB|--------------------------------------------------------|
  A chord diagramG+G|---------0-0---------4----------0-0--------4------------|
  A chord diagramD MajorD|---1-2---2------1-2--4-4---1-2--2-----1-2--4------------|
  A chord diagramA augmentedA|---------3-----------2----------3----------2------------|
  A chord diagramE MajorE|--------------------------------------------------------|


  A chord diagramE MajorE|----------------------------------------------------------|
  A chord diagramBB|----------------------------------------------------------|
  A chord diagramG+G|--------0-0--------4--------------------------------------|
  A chord diagramD MajorD|---1-2--2-----1-2--4-4---1-/2-2------------------2h4p2----|
  A chord diagramA augmentedA|--------3----------2-----------------2------2-------------|
  A chord diagramE MajorE|-----------------------------------------3-----0----------|

  Rhythm 1:

  A chord diagramE MajorE|----------------------------------------------|
  A chord diagramBB|-----0--1--0----------------------------------|
  A chord diagramG+G|---2----0-------2--0------------------0-------|
  A chord diagramD MajorD|--------2--------------4--2--1--2--4-----4--2-|
  A chord diagramA augmentedA|--------3--------------------2----------------|
  A chord diagramE MajorE|-------------------0------------------0-------|

  A chord diagramE MajorE|----------------------------------------------|
  A chord diagramBB|-------1--0-----------------------------------|
  A chord diagramG+G|-------0-------2--0---------------------------|
  A chord diagramD MajorD|-------2--------------4--2---1-----2----------|
  A chord diagramA augmentedA|-------3---------------------2-----0----------|
  A chord diagramE MajorE|------------------0---------------------------|

  A chord diagramE MajorE|----------------------------------------------|
  A chord diagramBB|-----0--1--0----------------------------------|
  A chord diagramG+G|--------0-------2--0------------------0-------|
  A chord diagramD MajorD|--------2--------------4--2--1--2--4-----4--2-|
  A chord diagramA augmentedA|--------3--------------------2----------------|
  A chord diagramE MajorE|-------------------0------------------0-------|

  A chord diagramE MajorE|----------------------------------------------|
  A chord diagramBB|---1--0---------------------------------------|
  A chord diagramG+G|---0-------2--0----------0--------------------|
  A chord diagramD MajorD|---2--------------4--2-------1-----2p1h2------|
  A chord diagramA augmentedA|---3--------------------3---2-----------------|
  A chord diagramE MajorE|--------------0------------------0------------|


Main song:

hammer-on 2nd fret 4th string at beginning of each measure of Em*, its also
a fraction before each lyric.
A chord diagramE MajorE|--------|
A chord diagramBB|--------|
A chord diagramG+G|--------|
A chord diagramD MajorD|-0-0h2--|
A chord diagramA augmentedA|----h2--|
A chord diagramE MajorE|------0-|

A chord diagramE minorEm


A chord diagramE minorEm
It ..
A chord diagramC majorC                         Ds2
It ...
A chord diagramE minorEm
It ...
A chord diagramC majorC                         Ds2
Or ..

repeat


chorus:
    A chord diagramE minorEm
    That's ...
                             Ds2
                             gospel
    A chord diagramE minorEm                        Bminor
    That's.....
    Ds2                     A chord diagramE minorEm
    That's the power of the gospel

etc


 A chord diagramE minorEm    : 022000
 A chord diagramC majorC     : x32010
 A chord diagramDsus2Dsus2 : xx032x
 A chord diagramB minorBm    : x2443x

Other versions of Power Of The Gospel

Power of the gospelChords
Power of the gospel acousticChords

Almost there ...

Sign in to get your own page with links to favourite songs and more. You are just one click away...

Login with Facebook Login with Google