Log in

One click and you are in

Login with Facebook Login with Google

Why sign up and log in

Guitar Tabs Explorer
Ben Harper tabs for Pleasure and pain

Guitar tabs

PLEASURE AND PAIN
                          by
                 BEN HARPER
                         off
         WELCOME TO THE CRUEL WORLD

His Weissenborn sounds much better on this song, but any accoustic
guitar will sound good.
Verse and solo:
|--------------------------------------------------------------|
|-------3~~~~7--7~~~~3--0--5--3--2----3-----------|
|----2--------------------------------------------------0--2-|
|-0--------------------------------------------0----0--------|
|--------------------------------------------------------------|
|--------------------------------------------------------------|

|------------------------------|
|-------3---------------------|
|----2--------0--2-----------|
|-0--------0--------0--------|
|------------------------------|
|------------------------------|

I"m ..
And ..


Chorus

How ..
And ..
Then ..

Chorus

And ..
I ..


Chorus

So ..
I ..


Chorus


Chorus:
|-------------------------------------------------------------|
|-7~~~~3--3-----7~~~~3--5-----7~~~~3--3-------|
|------------------------------------0------------------------|
|-------------------0-----------------------------------0----|
|-------------------------------------------------------------|
|-------------------------------------------------------------|

|-------------------------------------------------------------|
|--3~~~5--7~~~3--3--7~~~~3--5--3--5~~~~7---|
|-------------------------------------------------------------|
|-------------------------------------------------------------|
|-------------------------------------------------------------|
|-------------------------------------------------------------|

|-------------------|
|-3--5--3--2--3--|
|-------------------|
|-------------------|
|-------------------|
|-------------------|

This is a really good song
kevin honda

Almost there ...

Sign in to get your own page with links to favourite songs and more. You are just one click away...

Login with Facebook Login with Google