Log in

One click and you are in

Login with Facebook Login with Google

Why sign up and log in

Guitar Tabs Explorer
Ben Harper tabs for Please me like you want to

Please Me Like You Want To tab by Ben Harper

Ben Harper tabs for Please me like you want to

Guitar tabs

ARTIST: BEN HARPER
SONG: PLEASE ME LIKE YOU WANT TO
ALBUM: FIGHT FOR YOUR MIND

TABBED BY 'CARLONCHO' LOPEZ APARICIO (CHICLAYO, PERU)

TUNE YOUR GUITAR ONE STEP DOWN

Intro

D------------------------------------------------|
A------------------------------------------------|
F------------------------------------------------|
C-----6h7h6-------6h7h6--------------------------|
G-----------7--5---------7--5----4-4-4h5-5-7-----|
D--0--------------------------5------------------|

D----------------------------------------------------------|
A----------------------------------------------------------|
F----------------------------------------------------------|
C-----6h7h6------6h7h6---------6h7h6-----------------------|
G-----------7-----------7--5---------7--5-----4-4-4h5-5-7--|
D--0----------0----------------------------5---------------|


Verse
		  ...don't do me any favor...
D-------------------------------------------------------------|
A-------------------------------------------------------------|

F-------------------------------------------------------------|
C-----6h7h6---------6h7h6-------------------------------------|
G-----------7--------------7--5--------0--0--5h4-0-0-4h5h4-0--|
D--0-----------0-----------------0--2-------------------------|

  |-------------Repeat along the verse...---------|

Then, the chorus goes
"so won't you..."

D-------------------------------------------------------------|
A-------------------------------------------------------------|
F-------------------------------------------------------------|
C------------------6h7h6---------6h7h6------------------------|
G-------------------------7--5---------7--5------4-4-4h5-5-7--|
D----------------0----------------------------5---------------|


D----------------------------------------------------------|
A----------------------------------------------------------|
F----------------------------------------------------------|
C-----6h7h6------6h7h6---------6h7h6-----------------------|
G-----------7-----------7--5---------7--5----4-4-4h5-5-7---|
D--0----------0----------------------------5---------------|


INTERLUDE
D----------------------------------------------------------|
A----------------------------------------------------------|
F----------------------------------------------------------|
C----------------------------------------------------------|
G----4/7-7-5h4-5--7-5h4-0-4h5--7-5h4-0--4h5--7-5h4-0-------|
D----------------------------------------------------------|



Then

D-----------------------------------------------------|
A-----------------------------------------------------|
F-----------------------------------------------------|
C-----------6h7h6-------------------------------------|
G------------------7--5--------0--0--5h4-0-0-4h5h4-0--|
D--------0---------------0--2-------------------------| twice

Then, back to the verse...


Listen to the song to get the correct timing

...and that's it...i hope it helps!


SEND ANY CORRECTIONS TO carloncho_l@hotmail.com

Almost there ...

Sign in to get your own page with links to favourite songs and more. You are just one click away...

Login with Facebook Login with Google