Log in

One click and you are in

Login with Facebook Login with Google

Why sign up and log in

Guitar Tabs Explorer
Ben Harper chords for Please bleed

Guitar chords

Please Bleed ----- Ben Harper

Tabbed by Scott Lucadou-Wells
Any corrections?  scott24wells@hotmail.com

Intro and verses  (numbers below show which fingers I use to get the best
ring out for each note)

e -----------------------------------------------------
b ----------------------------------------------------
g ----------------------------------------------------      repeat with
d ----------------------------------------------------      verses
a -------7--5-----5---4-------------7--7h9--7-----
e ----0--------3----------5------8-------------------
             3  3  1   3    2   3       3   1   1  3   1

e -----------------------------------------------------
b ----------------------------------------------------
g ----------------------------------------------------    play this to lead
d ----------------------------------------------------    into chorus
a -------7--5-----5---4-------4--------------------
e ----0--------3----------5---------5---------------
             3  3  1   3    2   3     2     3


Chorus

A chord diagramE minorEm    A chord diagramC majorC
A chord diagramE minorEm    A chord diagramC majorC
A chord diagramE minorEm    A chord diagramC majorC    A chord diagramD MajorD
A chord diagramA minorAm    A chord diagramC majorC
A chord diagramA minorAm   A chord diagramC majorC
A chord diagramA minorAm   A chord diagramC majorC
A chord diagramA minorAm   A chord diagramC majorC
A chord diagramD MajorD

I've tabbed out the basic chorus with Ben's Hammer-ons etc. which you
can hear on the live CD. Each Chord noted is strummed a few times.

      A chord diagramE minorEm       A chord diagramC majorC		A chord diagramE minorEm    A chord diagramC majorC		A chord diagramE minorEm   A chord diagramC majorC
e ----0-------0---------------------0-----0----------------0----0------
b ----0-------1---------------------0----1-----------------0----1------
g ----0-------0---------------------0----0-----------------0----0------
d ----2-------2---------------------2----2-----------------2----2------
a ----2-------3--2h3p2p0--------2----3---2h3p2p0-------2----3-----
e ----0------------------------------0----------------------0-----------

       A chord diagramD MajorD	               A chord diagramA minorAm           A chord diagramC majorC
-----2----3----2------0---------0-------------
-----3----3----3------1---------1---------
-----2----2----2------2---------0-----------
-----0----0----0------2---------2------------
2-----------------------0----2---3---------------
-------------------------------------------------

        A chord diagramA minorAm       A chord diagramC majorC       A chord diagramA minorAm     A chord diagramC majorC        A chord diagramA minorAm    A chord diagramC majorC       A chord diagramD MajorD
e------0-------0-------0------0-------0-----0------2---3---2----
b------1-------1-------1------1-------1-----1------3---3---3----
g------2-------0-------2------0-------2-----0------2---2---2----
d------2-------2-------2------2-------2-----2------0---0---0----
a------0---2---3-------0------3-------0-----3-------------------
e-----------------------------------------------------------------

Easy as that!!!!  Enjoy!!!

Scott  07/09/01
scott24wells@hotmail.com

Other versions of Please Bleed

Please bleedTabs

Almost there ...

Sign in to get your own page with links to favourite songs and more. You are just one click away...

Login with Facebook Login with Google