Log in

One click and you are in

Login with Facebook Login with Google

Why sign up and log in

Guitar Tabs Explorer
Ben Harper tabs for Never leave lonely alone

Guitar tabs

hi,
this is my first post ever, so...

|--------------------------|
|--------------------------|
|--4--4--4--4--4--4--7--6--|
|--5--5--5--5--5--5--7--7--|
|--7--6--5--4--3-----------|
|-----------------3--5--5--|
like an old man...

|-----------------------|
|-----------------------|
|--4--4--4--4--4--4--7--|
|--5--5--5--5--5--5--7--|
|--3-----2-----3-----5--|
|-----3-----0-----3-----|
unspoken rules...

|-----------------------|
|-----------------------|
|--4--4--4--4--4--4--4--|
|--5--5--5--5--5--5--5--|
|--3-----2-----3-----2--|
|-----3-----0-----3-----|
all that we can say...

|--------------------------|
|--------------------------|
|--4--4--4--4--4--4--7--6--|
|--5--5--5--5--5--5--7--7--|
|--7--6--5--4--3-----------|
|-----------------3--5--5--|
there's something in everyone...

|--------------|
|--------------|
|--4--4--7--6--|
|--5--5--7--7--|
|--3-----------|
|-----3--5--5--|
never leave lonely alone...

Other versions of Never Leave Lonely Alone

Never leave lonely alone-tab 2Tabs

Almost there ...

Sign in to get your own page with links to favourite songs and more. You are just one click away...

Login with Facebook Login with Google