Log in

One click and you are in

Login with Facebook Login with Google

Why sign up and log in

Guitar Tabs Explorer
Ben Harper tabs for How many mile must we march

How Many Mile Must We March tab by Ben Harper

Ben Harper tabs for How many mile must we march

Guitar tabs with lyrics

HOW MANY MILES MUST WE MARCH


(Intro)
|----------------------------------------||
|----------------------------------------||
|--2--4--5---2----2--4--5--7--4--5--2----||
|--0--0--0---0----0--0--0--0--0--0--0----||
|----------------------------------------||
|--2--3--5---2----2--3--5--7--3--5--2----||
(Verse)
|------------------------------------------------
|------------------------------------------------
|----5---4----2--2--4----5--4----2--2--4-----5---
|----0---0----0--0--0----0--0----0--0--0-----0---
|------------------------------------------------
|--5---3---2-----2--3--5---3--2-----2--3--5----3-

--2----3--3---0--||
-----------------||
-----------------||
4---2--4--4-2p0--||
0---0--0--0---0--||
-----------------||


(Refrain)
|-------------------------||
|-------------------------||
|--0--2--2--4---4-2-0-----||
|--2--0--0--0---0---------||
|-------------------------||
|--0--2--2--3---3---------||

Exactly how much will have to burn
before we will look to the past to learn
we walk along this endless path
which has led us in a circle
so here we are right back
we can't let the future become our past
if we are to change the world
won't you tell me
tell me please
how many miles must we march
how many miles must we march
When I was a baby I was not prejudiced
hey how about you
this was something
that I learned in school
something they taught us to do
we can't let the future become our past
if we are to change the world
won't you tell me
tell me please
how many miles must we march
how many miles must we march
There must come a day
when a box is not somebody's home
the unfinished work of our heroes
must truly be our own
we can't let the future become our past
if we are to change the world
won't you tell me
tell me please
how many miles must we march
how many miles must we march
how many miles must we march
how many miles must we march
how many miles must we march
how many miles must we march

Almost there ...

Sign in to get your own page with links to favourite songs and more. You are just one click away...

Login with Facebook Login with Google