Log in

One click and you are in

Login with Facebook Login with Google

Why sign up and log in

Guitar Tabs Explorer
Ben Harper tabs for Excuse me mr

Guitar tabs

Excuse me Mr
>From the album Figth for your mind
Ben Harper
Transcription Ian Lindsay

Tunning one step below standard

All in finger picking.
    Intro & outro (first part only):

     rake
d||------------------|---------------------------|
A chord diagramA augmentedA||----1-p-0---------|---------------------------|
A chord diagramFF||---2--p-0---2--0--|--0-h-2----------2---------|
A chord diagramC majorC||--2---p-0------0--|--0-----------2-----2-p-0--|
A chord diagramG+G||------------------|----------0----------------|
A chord diagramD MajorD||------------------|---------------------------|


                          rake
d-----------------------------------------|-------
A---------------------------1-p-0---------|-------
F--------------------------2--p-0---2--0--|--0--2-
C--0--0--0--0--2-----2----2---p-0------0--|-------
G-----------------0-----------------------|-------
D-----------------------------------------|-------


d---------------------|--------------------------
A-1-------------------|--------------------------
F---------------------|--------------------------
C---------2--2--2--0--|--0--0---0--0-h-2-----2---
G-----0---------------|-------------------0------
D---------------------|--------------------------

   rake
d-----------------|-----------------------------||
A----1-p-0--------|-----------------------------||
F---2--p-0--2--0--|--0--2-----------------------||
C--2---p-0--------|-----------------------------||
G-----------------|---------0-------------------||
D-----------------|-----------------------------||



     Riff:

   Note: don't take it too strictly, it's what he plays
on the record but when he performes it live he tends to
alternate bass with thumb and chord with fingers.

d||-----------------------------------------------|
A chord diagramA augmentedA||------------1------1-----1---------1------0----|
A chord diagramFF||------------2------0-----0---------0------0----|
A chord diagramC majorC||------------2------2-----2---------2------0----|
A chord diagramG+G||--0----0----0------3--3-------3----3-----------|
A chord diagramD MajorD||------------------------------------------3----|


d|-----------------------------------------------||
A chord diagramA augmentedA|--0---------0------1-----1---------1-----------||
A chord diagramFF|--0---------0------2-----2---------2-----------||
A chord diagramC majorC|--0---------0------2-----2---------2-----------||
A chord diagramG+G|-------------------0--0-------0----0-----------||
A chord diagramD MajorD|--3----3----3----------------------------------||








______________________________________________________
Get Your Private, Free Email at http://www.hotmail.com

Almost there ...

Sign in to get your own page with links to favourite songs and more. You are just one click away...

Login with Facebook Login with Google