GuitarTabsExplorer icon
GuitarTabsExplorer icon

Log in

Songbook

  • Log in to add and see bookmarks

Last visited songs

  • No songs visited yet...
Lost Without Each Other by Hanson

Lost Without Each Other tab by Hanson

Tabs

Lost Without Each Other:

Hi! This is my first time publishing a tab, i hope you like it!


Tabbed in Standard Tune
EADGBE
BU = Bend Up
RP = Touch in that position
BD = Bend down
VB = Vibrato

Intro:

This riff is played on top of the intro chords:

Chord diagramE MajorE|----------------------------------------------13/7----|
Chord diagramBB|-4--5--5--7--4--4--5--------------------------12/6----|
Chord diagramG+G|-4--4--4--6--4--4--4----------------------------------|   INTRO
Chord diagramD MajorD|------------------------------------------------------|
Chord diagramA augmentedA|------------------------------------------------------|
Chord diagramE MajorE|------------------------------------------------------|

|-----------------------|
|-4--5--5--7--4--4--5---|
|-4--4--4--6--4--4--4---| REPEAT 2 TIMES
|-----------------------|
|-----------------------|
|-----------------------|
I ran into your best friend today
Twelve nights since you ran away             KEYBOARD PLAYING
I asked about you and she said, can't say, can't say



|----------------------------------------|
|----5---------5----5---2---------2----4-|
|-4---------4----4----2--------2----4----|
|----------------------------------------|
|----------------------------------------|
|----------------------------------------|
I'm feeling lonely and it seems to stay
It's been a while since I felt that way
|---------------------------------------------|
|----5---------5----5---2---------2------4----|
|-4---------4----4----2--------2---------4----|
|---------------------------------------------|
|---------------------------------------------|
|---------------------------------------------|
Well, I can tell you there's no room to play this game




|-----------------------------------------|
|-2---4---5-----4--------2------4---------|
|--------------------2-------4------------|
|-----------------------------------------|
|-----------------------------------------|
|-----------------------------------------|
All I know is what I'm missing
|-----------------------------------------|
|-2---4---5-----4--------2------4---------|
|--------------------2-------4------------|
|-----------------------------------------|
|-----------------------------------------|
|-----------------------------------------|
What I'm missing is your kissing
Are you listening





|-----------------------|
|-4--5--5--7--4--4--5---|
|-4--4--4--6--4--4--4---|
|-----------------------|
|-----------------------|
|-----------------------|
Don't go, don't go telling me you're alright
There's no room for getting uptight
|-----------------------|
|-4--5--5--7--4--4--5---|
|-4--4--4--6--4--4--4---|
|-----------------------|
|-----------------------|
|-----------------------|
Don't go saying that you're OK
When you're lonely
|-----------------------|
|-4--5--5--7--4--4--5---|
|-4--4--4--6--4--4--4---|
|-----------------------|
|-----------------------|
|-----------------------|
Baby, don't go telling me we're over
When you know you're my one and only lover
|-----------------------|
|-4--5--5--7--4--4--5---|
|-4--4--4--6--4--4--4---|
|-----------------------|
|-----------------------|
|-----------------------|
And I won't go saying that we're OK when we're
Lost without each other
|-----------------------|
|-4--5--5--7--4--4--5---|
|-4--4--4--6--4--4--4---|
|-----------------------|
|-----------------------|
|-----------------------|
'Cause we're lost without each other
'Cause we're lost without each other





|--------------------------------------|
|-4--5----------5-----5-----2-------4--|
|-4--4--------4---4-4---/-2---/--4-----|
|--------------------------------------|
|--------------------------------------|
|--------------------------------------|
I didn't mean to start the last big fight

You never should have hung up that night
|------------------------------|
|-------5-----5-----2-------4--|
|-----4---4-4---/-2---/--4-----|
|------------------------------|
|------------------------------|
|------------------------------|
All I want to do is make things right
Make it right

|----------------------------------------|
|----5---------5----5---2---------2----4-|
|-4---------4----4----2--------2----4----|
|----------------------------------------|
|----------------------------------------|
|----------------------------------------|
                         PLAY TWO GUITARS IN THE SAME TIME
|------------------------------|
|-------5-----5-----2-------4--|
|-----4---4-4---/-2---/--4-----|
|------------------------------|
|------------------------------|
|------------------------------|
Listen, with all the choices that we chose to make
And all the promises we chose to break

|----------------------------------------|
|----5---------5----5---2---------2----4-|
|-4---------4----4----2--------2----4----|
|----------------------------------------|
|----------------------------------------|
|----------------------------------------|
                         PLAY TWO GUITARS IN THE SAME TIME
|------------------------------|
|-------5-----5-----2-------4--|
|-----4---4-4---/-2---/--4-----|
|------------------------------|
|------------------------------|
|------------------------------|
We were busy making big mistakes, yesterday




|-----------------------------------------|
|-2---4---5-----4--------2------4---------|
|--------------------2-------4------------|
|-----------------------------------------|
|-----------------------------------------|
|-----------------------------------------|
All I know is what I'm missing
|-----------------------------------------|
|-2---4---5-----4--------2------4---------|
|--------------------2-------4------------|
|-----------------------------------------|
|-----------------------------------------|
|-----------------------------------------|
What I'm missing is your kissing
Are you listening





|-----------------------|
|-4--5--5--7--4--4--5---|
|-4--4--4--6--4--4--4---|
|-----------------------|
|-----------------------|
|-----------------------|
Don't go, don't go telling me you're alright
There's no room for getting uptight
|-----------------------|
|-4--5--5--7--4--4--5---|
|-4--4--4--6--4--4--4---|
|-----------------------|
|-----------------------|
|-----------------------|
Don't go saying that you're OK
When you're lonely
|-----------------------|
|-4--5--5--7--4--4--5---|
|-4--4--4--6--4--4--4---|
|-----------------------|
|-----------------------|
|-----------------------|
Baby don't go telling me we're over
When you know you're my one and only lover
|-----------------------|
|-4--5--5--7--4--4--5---|
|-4--4--4--6--4--4--4---|
|-----------------------|
|-----------------------|
|-----------------------|
And I won't go saying that we're OK when we're
Lost without...


I can tell you one thing
We're not better on our own
I'm tired of running from my feelings
Are you listening !!!!!


   SOLO (its close, but i dont know much about how explain it)

|-------|
|-7-----|
|-9-----|  Play fastly up and down this part (something like tremolo)
|-------|
|-------|
|-------|

  BU  RP          BU  RP
|-----------------------------------------------|
|-----------------------------------------------|
|--11(12)-(12)-11--9------9---11(12)-(12)-11--9-|
|---------------------11------------------------|
|-----------------------------------------------|
|-----------------------------------------------|

                 VB
|--------------------------------------|
|--------------------------------------|
|--9--11(12)-(4 times)---------9--11---|
|--------------------------------------|
|--------------------------------------|
|--------------------------------------|

             VB
|--------------------------------|
|--------------------------------|
|-9---11---9---13---15---16------|
|--------------------------------|
|--------------------------------|
|--------------------------------|
|--------------------------------|


|-14----|
|-12----|  Play fastly up and down this part (something like tremolo)
|-------|
|-------|
|-------|
|-------|

  BU RP                         VB
|-15(16)(16)(16)---12----------15(16)(16)(16)---12----------12-----|
|--------12--12--------15--12---------12--12--------15--12---------|
|------------------------------------------------------------------|
|------------------------------------------------------------------|
|------------------------------------------------------------------|
|------------------------------------------------------------------|

 END OF SOLO



|-----------------------------------------|
|-2---4---5-----4--------2------4---------|
|--------------------2-------4------------|
|-----------------------------------------|
|-----------------------------------------|
|-----------------------------------------|
All I know is what I'm missing
|-----------------------------------------|
|-2---4---5-----4--------2------4---------|
|--------------------2-------4------------|
|-----------------------------------------|
|-----------------------------------------|
|-----------------------------------------|
What I'm missing is your kissing
Are you listening





|-----------------------|
|-4--5--5--7--4--4--5---|
|-4--4--4--6--4--4--4---|
|-----------------------|
|-----------------------|
|-----------------------|
Don't go, don't go telling me you're alright
There's no room for getting uptight
|-----------------------|
|-4--5--5--7--4--4--5---|
|-4--4--4--6--4--4--4---|
|-----------------------|
|-----------------------|
|-----------------------|
Don't go saying that you're OK
When you're lonely
|-----------------------|
|-4--5--5--7--4--4--5---|
|-4--4--4--6--4--4--4---|
|-----------------------|
|-----------------------|
|-----------------------|
Baby, don't go telling me we're over
When you know you're my one and only lover
|-----------------------|
|-4--5--5--7--4--4--5---|
|-4--4--4--6--4--4--4---|
|-----------------------|
|-----------------------|
|-----------------------|
And I won't go saying that we're OK when we're
Lost without each other
|-----------------------|
|-4--5--5--7--4--4--5---|
|-4--4--4--6--4--4--4---|
|-----------------------|
|-----------------------|
|-----------------------|
'Cause we're lost without each other
'Cause we're lost without each other (repeat to fade..)

  BU           BU  BU
|-15(16)15---12----------12(13)12(13)---12-|
|----------------15---------------------15-|
|------------------------------------------|
|------------------------------------------|
|------------------------------------------|
|------------------------------------------|


I hope you like it! I tabbed this by ear, and i think sound pretty closer to the
original song. Any comment? write to [email protected]

Atte.
Wildcrue

[ Privacy | About us ]

Welcome to the guitar community

Why join and log in?
- Get songbook with favourite songs
- Get custom made front page
- Submit chords and tabs
- Submit guitar-cover videos
- Get a lot of thumbs up for your work

Songbook

Last visited songs

Site
Home
Search
Community
Submit chords

Video

No video for this page. Check out how you can submit guitar-cover videos here

Search tabs and chords

Browse by artist

A B C D E F G H I J K L M N O P Q R S T U V W X Y Z #


Menu

Search

Video

Bookmark

Login