Guitar Tabs Explorer
Glen Hansard guitar tabs for My little ruin

My Little Ruin tab


Be the first to rate

My Little Ruin tab by Glen Hansard

Guitar tabs

Print

Tuning: Standard (E chord diagramEE A chord diagramAA D chord diagramDD G chord diagramGG B chord diagramBB E chord diagramEE)

----------------------- MY LITTLE RUIN - GLEN HANSARD -------------------------

Intro:

  Bm7 chord diagramBm7Bm7               D chord diagramDD/F# chord diagramF#F#              Bm7 chord diagramBm7Bm7               D chord diagramDD/F# chord diagramF#F#
e|------------------------------------------------------------------------|
B|----------3-----------------3-----------------3-----------------3-------|
G|----------------2-----------------2-----------------2-----------------2-|
D|-------0-----------------0-----------------0-----------------0----------|
A|-2-----------------------------------2----------------------------------| x6
E|-------------------2-----------2-----------------------2-----------2----|
   1  +  2  +  3  +  1  +  2  +  3  +  1  +  2  +  3  +  1  +  2  +  3  +


Verse:

   Bm7 chord diagramBm7Bm7               D chord diagramDD/F# chord diagramF#F#              Bm7 chord diagramBm7Bm7               D chord diagramDD/F# chord diagramF#F#
e|------------------------------------------------------------------------|
B|----------3-----------------3-----------------3-----------------3-------|
G|----------------2-----------------2-----------------2-----------------2-|
D|-------0-----------------0-----------------0-----------------0----------|
A|-2-----------------------------------2----------------------------------| x4
E|-------------------2-----------2-----------------------2-----------2----|
   1  +  2  +  3  +  1  +  2  +  3  +  1  +  2  +  3  +  1  +  2  +  3  +

   Gsus2 chord diagramGsus2Gsus2                               Bm chord diagramBmBm
e|------------------------------------------------------------------------|
B|----------3-----------------3-----------------7-----------------7-------|
G|----------------2-----------------2-----------------6-----------------6-|
D|-------0-----------------0-----------------0-----------------0----------|
A|------------------------------------------------------------------------|
E|-3-----------3-----3-----------3-----7-----------7-----7-----------7----|
   1  +  2  +  3  +  1  +  2  +  3  +  1  +  2  +  3  +  1  +  2  +  3  +

   Bm chord diagramBmBm                                  Gsus2 chord diagramGsus2Gsus2
e|------------------------------------------------------------------------|
B|----------7-----------------7-----------------3-----------------3-------|
G|----------------6-----------------6-----------------2-----------------2-|
D|-------0-----------------0-----------------0-----------------0----------|
A|------------------------------------------------------------------------|
E|-7-----------7-----7-----------7-----3-----------3-----3-----------3----|
   1  +  2  +  3  +  1  +  2  +  3  +  1  +  2  +  3  +  1  +  2  +  3  +

   Bm chord diagramBmBm
e|------------------------------------------------------------------------|
B|----------7-----------------7-----------------7-----------------7-------|
G|----------------6-----------------6-----------------6-----------------6-|
D|-------0-----------------0-----------------0-----------------0----------|
A|------------------------------------------------------------------------|
E|-7-----------7-----7-----------7-----7-----------7-----7-----------7----|
   1  +  2  +  3  +  1  +  2  +  3  +  1  +  2  +  3  +  1  +  2  +  3  +

Second Verse same as first


Chorus:
                                                                             ?
e|-0--------0-----0--0-----0--0--0--0--0--------0-----0--0-----0--0--0--0-|  ?
B|-2--------2-----2--2-----2--2--2--2--2--------2-----2--2-----2--2--2--2-|  ?
G|-4--------4-----4--4-----4--4--4--4--4--------4-----4--4-----4--4--4--4-|  ?
D|-2--------2-----2--2-----2--2--2--2--2--------2-----2--2-----2--2--2--2-|  ?
A|-0--------0-----0--0-----0--0--0--0--0--------0-----0--0-----0--0--0--0-|  ?
E|------------------------------------------------------------------------|  ?
   1  +  2  +  3  +  1  +  2  +  3  +  1  +  2  +  3  +  1  +  2  +  3  +    ?
                                                                             ? x3
   Em9 chord diagramEm9Em9                                                                       ?
-0--------0-----0--0-----0--0--0--0--0--------0-----0--0-----0--0--0--0-|  ?
-3--------3-----3--3-----3--3--3--3--3--------3-----3--3-----3--3--3--3-|  ?
-0--------0-----0--0-----0--0--0--0--0--------0-----0--0-----0--0--0--0-|  ?
-2--------2-----2--2-----2--2--2--2--2--------2-----2--2-----2--2--2--2-|  ?
-x--------x-----x--x-----x--x--x--x--x--------x-----x--x-----x--x--x--x-|  ?
-0--------0-----0--0-----0--0--0--0--0--------0-----0--0-----0--0--0--0-|  ?
   1  +  2  +  3  +  1  +  2  +  3  +  1  +  2  +  3  +  1  +  2  +  3  +    ?
                                                                             ?

   Gmaj7 chord diagramGmaj7Gmaj7                                                                     ?
e|-2--------2-----2--2-----2--2--2--2--2--------2-----2--2-----2--2--2--2-|  ?
B|-0--------0-----0--0-----0--0--0--0--0--------0-----0--0-----0--0--0--0-|  ?
G|-0--------0-----0--0-----0--0--0--0--0--------0-----0--0-----0--0--0--0-|  ?
D|-0--------0-----0--0-----0--0--0--0--0--------0-----0--0-----0--0--0--0-|  ?
A|-x--------x-----x--x-----x--x--x--x--x--------x-----x--x-----x--x--x--x-|  ?
E|-3--------3-----3--3-----3--3--3--3--3--------3-----3--3-----3--3--3--3-|  ?
   1  +  2  +  3  +  1  +  2  +  3  +  1  +  2  +  3  +  1  +  2  +  3  +    ?
                                                                             ? x3
   Bmadd11                             Aadd11                                ?
-0--------0-----0--0-----0--0--0--0--0--------0-----0--0-----0--0--0--0-|  ?
-7--------7-----7--7-----7--7--7--7--5--------5-----5--5-----5--5--5--5-|  ?
-7--------7-----7--7-----7--7--7--7--6--------6-----6--6-----6--6--6--6-|  ?
-0--------0-----0--0-----0--0--0--0--0--------0-----0--0-----0--0--0--0-|  ?
-x--------x-----x--x-----x--x--x--x--x--------x-----x--x-----x--x--x--x-|  ?
-7--------7-----7--7-----7--7--7--7--5--------5-----5--5-----5--5--5--5-|  ?
   1  +  2  +  3  +  1  +  2  +  3  +  1  +  2  +  3  +  1  +  2  +  3  +    ?
                                                                             ?

Verse:

   Bm7 chord diagramBm7Bm7               D chord diagramDD/F# chord diagramF#F#              Bm7 chord diagramBm7Bm7               D chord diagramDD/F# chord diagramF#F#
e|------------------------------------------------------------------------|
B|----------3-----------------3-----------------3-----------------3-------|
G|----------------2-----------------2-----------------2-----------------2-|
D|-------0-----------------0-----------------0-----------------0----------|
A|-2-----------------------------------2----------------------------------| x4
E|-------------------2-----------2-----------------------2-----------2----|
   1  +  2  +  3  +  1  +  2  +  3  +  1  +  2  +  3  +  1  +  2  +  3  +

   Gsus2 chord diagramGsus2Gsus2                               Bm chord diagramBmBm
e|------------------------------------------------------------------------|
B|----------3-----------------3-----------------7-----------------7-------|
G|----------------2-----------------2-----------------6-----------------6-|
D|-------0-----------------0-----------------0-----------------0----------|
A|------------------------------------------------------------------------|
E|-3-----------3-----3-----------3-----7-----------7-----7-----------7----|
   1  +  2  +  3  +  1  +  2  +  3  +  1  +  2  +  3  +  1  +  2  +  3  +

   Bm chord diagramBmBm                                  Gsus2 chord diagramGsus2Gsus2
e|------------------------------------------------------------------------|
B|----------7-----------------7-----------------3-----------------3-------|
G|----------------6-----------------6-----------------2-----------------2-|
D|-------0-----------------0-----------------0-----------------0----------|
A|------------------------------------------------------------------------|
E|-7-----------7-----7-----------7-----3-----------3-----3-----------3----|
   1  +  2  +  3  +  1  +  2  +  3  +  1  +  2  +  3  +  1  +  2  +  3  +

   Bm chord diagramBmBm
e|------------------------------------------------------------------------|
B|----------7-----------------7-----------------7-----------------7-------|
G|----------------6-----------------6-----------------6-----------------6-|
D|-------0-----------------0-----------------0-----------------0----------|
A|------------------------------------------------------------------------|
E|-7-----------7-----7-----------7-----7-----------7-----7-----------7----|
   1  +  2  +  3  +  1  +  2  +  3  +  1  +  2  +  3  +  1  +  2  +  3  +


Chorus:
                                                                             ?
e|-0--------0-----0--0-----0--0--0--0--0--------0-----0--0-----0--0--0--0-|  ?
B|-2--------2-----2--2-----2--2--2--2--2--------2-----2--2-----2--2--2--2-|  ?
G|-4--------4-----4--4-----4--4--4--4--4--------4-----4--4-----4--4--4--4-|  ?
D|-2--------2-----2--2-----2--2--2--2--2--------2-----2--2-----2--2--2--2-|  ?
A|-0--------0-----0--0-----0--0--0--0--0--------0-----0--0-----0--0--0--0-|  ?
E|------------------------------------------------------------------------|  ?
   1  +  2  +  3  +  1  +  2  +  3  +  1  +  2  +  3  +  1  +  2  +  3  +    ?
                                                                             ? x3
   Em9 chord diagramEm9Em9                                                                       ?
-0--------0-----0--0-----0--0--0--0--0--------0-----0--0-----0--0--0--0-|  ?
-3--------3-----3--3-----3--3--3--3--3--------3-----3--3-----3--3--3--3-|  ?
-0--------0-----0--0-----0--0--0--0--0--------0-----0--0-----0--0--0--0-|  ?
-2--------2-----2--2-----2--2--2--2--2--------2-----2--2-----2--2--2--2-|  ?
-x--------x-----x--x-----x--x--x--x--x--------x-----x--x-----x--x--x--x-|  ?
-0--------0-----0--0-----0--0--0--0--0--------0-----0--0-----0--0--0--0-|  ?
   1  +  2  +  3  +  1  +  2  +  3  +  1  +  2  +  3  +  1  +  2  +  3  +    ?
                                                                             ?

   Gmaj7 chord diagramGmaj7Gmaj7                                                                     ?
e|-2--------2-----2--2-----2--2--2--2--2--------2-----2--2-----2--2--2--2-|  ?
B|-0--------0-----0--0-----0--0--0--0--0--------0-----0--0-----0--0--0--0-|  ?
G|-0--------0-----0--0-----0--0--0--0--0--------0-----0--0-----0--0--0--0-|  ?
D|-0--------0-----0--0-----0--0--0--0--0--------0-----0--0-----0--0--0--0-|  ?
A|-x--------x-----x--x-----x--x--x--x--x--------x-----x--x-----x--x--x--x-|  ?
E|-3--------3-----3--3-----3--3--3--3--3--------3-----3--3-----3--3--3--3-|  ?
   1  +  2  +  3  +  1  +  2  +  3  +  1  +  2  +  3  +  1  +  2  +  3  +    ?
                                                                             ? x3
   Bmadd11                             Aadd11                                ?
-0--------0-----0--0-----0--0--0--0--0--------0-----0--0-----0--0--0--0-|  ?
-7--------7-----7--7-----7--7--7--7--5--------5-----5--5-----5--5--5--5-|  ?
-7--------7-----7--7-----7--7--7--7--6--------6-----6--6-----6--6--6--6-|  ?
-0--------0-----0--0-----0--0--0--0--0--------0-----0--0-----0--0--0--0-|  ?
-x--------x-----x--x-----x--x--x--x--x--------x-----x--x-----x--x--x--x-|  ?
-7--------7-----7--7-----7--7--7--7--5--------5-----5--5-----5--5--5--5-|  ?
   1  +  2  +  3  +  1  +  2  +  3  +  1  +  2  +  3  +  1  +  2  +  3  +    ?
                                                                             ?

Other versions of My Little Ruin

My little ruinChords