Log in

One click and you are in

Login with Facebook Login with Google

Why sign up and log in

Guitar Tabs Explorer
Hanoi Rocks bass tabs for People like me

Bass tabs

People Like Me.btab
Hanoi Rocks
TablEdited by Poppamies

Tuning : E A D G 	Time Signature: 4/4

 tempo 146    |    |    |    |    |    |
|--------------------------------|--------------------------------|
|------------2-----------4-------|------------------------2-------|
|4-------------------------------|2-----------4-------------------|
|--------------------------------|--------------------------------|

 |    |    |    |    |    |    |    |
|--------------------------------|--------------------------------|
|------------2-----------4-------|------------------------2-------|
|4-------------------------------|2-----------4-------------------|
|--------------------------------|--------------------------------|

 |    |    |    |    |    |    |    |
|--------------------------------|--------------------------------|
|------------2-----------4-------|------------------------2-------|
|4-------------------------------|2-----------4-------------------|
|--------------------------------|--------------------------------|

 |    |    |    |    |    |    |    |
|--------------------------------|--------------------------------|
|------------2-----------4-------|------------------------2-------|
|4-------------------------------|2-----------4-------------------|
|--------------------------------|--------------------------------|

 |    |    |    |    |    |    |    |
|--------------------------------|----------------1---1-----------|
|--------------------------------|2v------4---2-----------4---2---|
|4-----------4---2---4-------4---|--------------------------------|
|--------------------------------|--------------------------------|

 |    |    |    |    |    |    |    |
|--------------------------------|--------------------------------|
|--------------------------------|--------------------------------|
|2-------2---2---2---0-----------|--------0-------------------0---|
|------------------------4---2---|0---0-----------0-------0-------|

 |    |    |    |    |    |    |    |
|--------------------------------|--------------------------------|
|--------------------------------|--------------------------------|
|----------------0---------------|4-----------4-------4---4---4---|
|----0-------0-----------4---0---|--------------------------------|

 |    |    |    |    |    |    |    |
|--------------------------------|--------------------------------|
|--------------------------------|--------------------------------|
|--------------------------------|2-----------2-------2---2---2---|
|0-----------0-------0---2---4---|--------------------------------|

 |    |    |    |    |    |    |    |
|--------------------------------|--------------------------------|
|--------------------------------|--------------------------------|
|0-----------0-------------------|4-----------4-------4---4---4---|
|--------------------4---2---0---|--------------------------------|

 |    |    |    |    |    |    |    |
|--------------------------------|--------------------------------|
|--------------------------------|--------------------------------|
|--------------------------------|2-----------2---2---0-----------|
|0-----------0-------0---2---4---|------------------------4---2---|

 |    |    |    |    |    |    |    |
|--------------------------------|--------------------------------|
|--------------------------------|--------------------------------|
|--------0-------------------0---|----------------0---0-----------|
|0---------------0---------------|----0-------0-----------4---0---|

 |    |    |    |    |    |    |    |
|--------------------------------|--------------------------------|
|--------------------------------|------------- j.ne... ---------|
|4-----------4-------4---4---4---|--------------------------------|
|--------------------------------|0-----------0-------0---2---4---|

http://www.geocities.com/jani_bjorklund/janis.html 1058405404377

Almost there ...

Sign in to get your own page with links to favourite songs and more. You are just one click away...

Login with Facebook Login with Google