Log in

One click and you are in

Login with Facebook Login with Google

Why sign up and log in

Guitar Tabs Explorer
Lisa Hannigan bass tabs for Lille

Bass tabs

Lille - Lisa Hannigan
As performed on the Sea Sew album.
Tabbed by: sushinut

Guitar intro:
Verse 1:
  He went to sea...            ...so is he
G|-----------------------------------------------------|
D|--rest:---------------------------------------------|
A|-----------------------------------------------------|
E|-----------------------------------------------------|


Verse 2:
  I went to war...        ...that I love durably
G|------------------------------------------------------|
D|--rest:----------------------------------------------|
A|------------------------------------------------------|
E|------------------------------------------------------|

Now it's  dead       I am free
G|------------------------------------------------------|
D|---------------------------------4---------------4----|
A|----------2-----------------------------------2-------|
E|------------------------------------------------------|

  Ohhh..ohh...oh-hhhhh    oh
G|------------------------------------------------------|
D|----------------------------4-4----4-4----4-4----4-4--|
A|-------2--/--6---6--\--2---------4------4------4------|
E|------------------------------------------------------|


Verse 3:
   to sleep...                   ...toys
G|------------------------------------------------------------|
D|-------4-4----4-4----4-4----4-4--1------1\4-4----1-1----4-4-|
A|-----4------4------4------4--------2-2---------1------2-----|
E|------------------------------------------------------------|

   love...  ...labouring... ...seed
G|----------------------------------------------|
D|---4-4----1-1--------------------4-4-----4-4--|
A|-4------1---------2--------------------4------|
E|----------------------------------------------|

  Ohhh..ohh...oh-hhhhh
G|------------------------------------------------------|
D|--1-------------------------4-4----4-4----4-4----4-4--|
A|-----2-2-/-6-6---6-6-\-2---------4------4------4------|
E|------------------------------------------------------|


Verse 4:
Went out...            ...as we run
G|---------------------------------------------|
D|-----4----rest:-----------------------------|
A|---4-----------------------------------------|
E|---------------------------------------------|

To the beach  endlessly sun  ...sea
G|---------------------------------------------|
D|---------------1-----------------4-4----4-4--|
A|-----4-------1----------2-------------4------|
E|---------------------------------------------|

  Ohhh..ohh...oh-hhhhh     oh
G|---------------------------------------------------------------------|
D|--1---------------------------4-------4-4----4-4----4-4--------------|
A|-----2-2-/-6-6---6-6-\-2------------4------4------4--------4---------|
E|-----------------------------------------------------------------2---|


************************************

| /  Slide up
| \  Slide down

Almost there ...

Sign in to get your own page with links to favourite songs and more. You are just one click away...

Login with Facebook Login with Google