Log in

One click and you are in

Login with Facebook Login with Google

Why sign up and log in

Guitar Tabs Explorer
Hannah Boulton guitar tabs for Wicked game

Guitar tabs

e------------------------------------------------------------------------------------------------------------|
B------------------------------------------------------------------------------------------------------------|
G------------5~-5h6p5-------------8-8/10-6------------6-5-5--------------------------------------------------|
D-(6)h8--(8)----------6--------------------8-8--(6)h8-------/8-8-5-5--5/6/8----------------------------------|
A-----------------------6--4-4/6-----------------------------------------------------------------------------|
E------------------------------------------------------------------------------------------------------------|

e-------------------------------------------------------------------------------11---------------------------|
B---11---9---9-11--------------------------------------------------------------------------------------------|
G-----------------8--6---8/9-8-(6)h8-6----------------6-----5~-------------8-8-------------------------------|
D-8----8---8-----------8---------------8-6--------------8-8----8-6-------------------------------------------|
A------------------------------------------6-6b-4-6/8--------------6/8/6-6-----------------------------------|
E------------------------------------------------------------------------------------------------------------|

e11b-11-9------------9/8-8-----------------------------------------------------------------------------------|
B---------11-11-9h11-------9---------11-9h11----------------------------9------------------------------------|
G----------------------------8/6-------------8/6---(6)h8-(6)8-8-6-----6-6-6-----------------------6---8------|
D--------------------------------8-6-------------8----------------8-8-------8-6-8-6-------------6---6----6/8-|
A-----------------------------------------------------------------------------------8-6-6-4-6/8--------------|
E------------------------------------------------------------------------------------------------------------|

e------------------------------------------------------------------------------------------------------------|
B8-9----11--9-11-9-8-9-8-6-8----------------------------------------------------------6-6---6-6--------------|
G----10----------------------6-----8/9-8-6--------------------------------------------6-6---6-6--------------|
D------------------------------8-6---------8------------------------6-6/8-8p6-8-8p6-8-----8-----(8)----------|
A----------------------------------------------6/8-6-4---4h6-4----4------------------------------------------|
E------------------------------------------------------6-------6-6-------------------------------------------|

e------------------------------------------------------------------------------------------------------------|
B------------------------------------------------------------------------------------------------------------|
G--------------------6-6-8-8---------------------------------------------------------------------------------|
D------------6-6-8-8-----------------------------------------------------------------------------------------|
A4-4-6-6-8-8-------------------------------------------------------------------------------------------------|
E------------------------------------------------------------------------------------------------------------|

e---6--------------------------------------------------------------------------------------------------------|
B9b---9-6---6-6----------------------------------------------------------------------------------------------|
G---------8-----6-----(6)h8brp6h8--/6-6-8-6-------------------------------------------------------6-8b~p6-6h8|
D-----------------8p6-----------------------8-6-----------------------------------------------6-8------------|
A-----------------------------------------------8-7-6-4-6-4------4---4-6-6/8-6-4-6~-4-6-4-6/8----------------|
E-----------------------------------------------------------6-6----6-----------------------------------------|

e8br-8-6--6h8p6---6-8br-8-6-------9-11-11br-11-9--------11-15-15br-15-11--16b-16brp13-16p13----13------------|
B---------------8-----------/9-11----------------/11-14-------------------------------------16----16-14-11-11|
G------------------------------------------------------------------------------------------------------------|
D------------------------------------------------------------------------------------------------------------|
A------------------------------------------------------------------------------------------------------------|
E------------------------------------------------------------------------------------------------------------|

e------------------------------------------------------------------------------------------------------------|
B9-8---------------------------------------------------------------------------------------------------------|
G----8-------------------------------------------------------------------------------------------------------|
D------8-5-----------6-8----6~-5~-6h8~-6-8-------------------------------------------------------------------|
A----------8-6-4-6-8-----------------------6-----------------------------------------------------------------|
E------------------------------------------------------------------------------------------------------------|



************************************

| h    Hammer-on
| p    Pull-off
| /    Slide up
| ~    Vibrato
| (n)  Ghost note
| b    Bend
| br   Bend release

Almost there ...

Sign in to get your own page with links to favourite songs and more. You are just one click away...

Login with Facebook Login with Google