Log in

One click and you are in

Login with Facebook Login with Google

Why sign up and log in

Guitar Tabs Explorer
Hannah And Maggie guitar chords for The other half ukulele

The Other Half Ukulele chords by Hannah And Maggie

Hannah And Maggie guitar chords for The other half ukulele

Guitar chords with lyrics

Tuning: G C E A (G C E A)

Key: C

Difficulty: Intermediate
Intro:

A|-------5-------------5------------3-----------2-------|
E|---3-------3------3-----3------3-----3-----3-----3----|
C|------------------------------------------------------|
G|-0---0---------0------------0-----------0-------------|

A|------3-----------3-----------2-----------0--------|
E|---0-----0-----0-----0-----0-----0-----0-----0-----|
C|-4----------4-----------4-----------4--------------|
G|---------------------------------------------------|

A|-------10---------|
E|---10------10-----| x4
C|------------------|
G|-0----------------|

A|------3--------|
E|---3-----3-----| x4
C|---------------|
G|-0-------------|

Play this entire section TWICE


Verse 1:

A|------5-----------5------------3-----------2-------|
E|---3-----3-----3-----3------3-----3-----3-----3----|
C|---------------------------------------------------|
G|-0----------0------------0-----------0-------------|

A|------3-----------3-----------2-----------0--------|
E|---0-----0-----0-----0-----0-----0-----0-----0-----|
C|-4----------4-----------4-----------4--------------|
G|---------------------------------------------------|

A|-------10---------|
E|---10------10-----| x4
C|------------------|
G|-0----------------|

1st Ending:                 2nd Ending:
A|-------3--------|         A|-------3-----------3-----3-----|
E|----3-----3-----| x4      E|----3-----3-----3-----3--3-----|
C|----------------|         C|-------------------------------|
G|-0--------------|         G|-0-----------0-----------0-----|

Play this entire section TWICE (with each ending respectively)


Chorus:

       s  PM---:  s        s  PM---:  s      s  PM---:  s      s  PM---:  s
A|-0---0--0-0-0-0--1--1/2---2--2-2-2-2--1--0---0--0-0-0-0--2--2---2--2-2-2-2--2--2--|
E|-0---0--0-0-0-0--1--1/2---2--2-2-2-2--1--0---0--0-0-0-0--2--3---3--3-3-3-3--3--3--|
C|-0---0--0-0-0-0--1--1/2---2--2-2-2-2--1--0---0--0-0-0-0--2--2---2--2-2-2-2--2--2--|
G|-2---2--2-2-2-2--3--3/4---4--4-4-4-4--3--2---2--2-2-2-2--4--4---4--4-4-4-4--4--4--|

       s  PM---:  s        s  PM---:  s      s  PM---:  s  let ring
A|-0---0--0-0-0-0--1--1/2---2--2-2-2-2--1--0---0--0-0-0-0--0--3---------|
E|-0---0--0-0-0-0--1--1/2---2--2-2-2-2--1--0---0--0-0-0-0--0--3---------|
C|-0---0--0-0-0-0--1--1/2---2--2-2-2-2--1--0---0--0-0-0-0--0--3---------|
G|-2---2--2-2-2-2--3--3/4---4--4-4-4-4--3--2---2--2-2-2-2--2--5---------|


Post-Chorus:

A|-------5-------------5--------------3--------------2---------|
E|---3-------3-----3-------3-----3--------3-----3--------3-----|
C|-------------------------------------------------------------|
G|-0---0---------0---0---------0---0----------0---0------------|

A|-------3-------------3--------------2--------------0---------|
E|---0-------0-----0-------0-----0--------0-----0--------0-----|
C|-4---4---------4---4---------4---4----------4---4------------|
G|-------------------------------------------------------------|

A|--------10----------|
E|---10--------10-----| x4
C|--------------------|
G|-0----0-------------|

A|-------3---------|
E|---3-------3-----| x4
C|-----------------|
G|-0---0-----------|


Verse 2:

A|------5-----------5------------3-----------2-------|
E|---3-----3-----3-----3------3-----3-----3-----3----|
C|---------------------------------------------------|
G|-0----------0------------0-----------0-------------|

A|------3-----------3-----------2-----------0--------|
E|---0-----0-----0-----0-----0-----0-----0-----0-----|
C|-4----------4-----------4-----------4--------------|
G|---------------------------------------------------|

A|-------10---------|
E|---10------10-----| x4
C|------------------|
G|-0----------------|

1st Ending:                 2nd Ending:
A|-------3--------|         A|-------3-----------3-----3-----|
E|----3-----3-----| x4      E|----3-----3-----3-----3--3-----|
C|----------------|         C|-------------------------------|
G|-0--------------|         G|-0-----------0-----------0-----|

Play this entire section TWICE (with each ending respectively)


Chorus:

       s  PM---:  s        s  PM---:  s      s  PM---:  s      s  PM---:  s
A|-0---0--0-0-0-0--1--1/2---2--2-2-2-2--1--0---0--0-0-0-0--2--2---2--2-2-2-2--2--2--|
E|-0---0--0-0-0-0--1--1/2---2--2-2-2-2--1--0---0--0-0-0-0--2--3---3--3-3-3-3--3--3--|
C|-0---0--0-0-0-0--1--1/2---2--2-2-2-2--1--0---0--0-0-0-0--2--2---2--2-2-2-2--2--2--|
G|-2---2--2-2-2-2--3--3/4---4--4-4-4-4--3--2---2--2-2-2-2--4--4---4--4-4-4-4--4--4--|

       s  PM---:  s        s  PM---:  s      s  PM---:  s  let ring
A|-0---0--0-0-0-0--1--1/2---2--2-2-2-2--1--0---0--0-0-0-0--0--3---------|
E|-0---0--0-0-0-0--1--1/2---2--2-2-2-2--1--0---0--0-0-0-0--0--3---------|
C|-0---0--0-0-0-0--1--1/2---2--2-2-2-2--1--0---0--0-0-0-0--0--3---------|
G|-2---2--2-2-2-2--3--3/4---4--4-4-4-4--3--2---2--2-2-2-2--2--5---------|


Bridge:

Strumming Pattern A
  PM----------------------:
A|-1--1-1-1--1--1--1--1-1-1-----|
E|-3--3-1-3--3--3--3--3-1-3-----| x3
C|-2--2-2-2--2--2--2--2-2-2-----|
G|-0--0-0-0--0--0--0--0-0-0-----|

Strumming Pattern B
   PM---:  s  PM--:
A|-0-0-0-0--1--2-2--2-----|
E|-0-0-0-0--1--2-2--2-----|
C|-0-0-0-0--1--2-2--2-----|
G|-2-2-2-2--3--4-4--4-----|

Play this section TWICE


Chorus:

       s  PM---:  s        s  PM---:  s      s  PM---:  s      s  PM---:  s
A|-0---0--0-0-0-0--1--1/2---2--2-2-2-2--1--0---0--0-0-0-0--2--2---2--2-2-2-2--2--2--|
E|-0---0--0-0-0-0--1--1/2---2--2-2-2-2--1--0---0--0-0-0-0--2--3---3--3-3-3-3--3--3--|
C|-0---0--0-0-0-0--1--1/2---2--2-2-2-2--1--0---0--0-0-0-0--2--2---2--2-2-2-2--2--2--|
G|-2---2--2-2-2-2--3--3/4---4--4-4-4-4--3--2---2--2-2-2-2--4--4---4--4-4-4-4--4--4--|

       s  PM---:  s        s  PM---:  s      s  PM---:  s
A|-0---0--0-0-0-0--1--1/2---2--2-2-2-2--1--0---0--0-0-0-0--0--0---2--2--2-2-2-2-----|
E|-0---0--0-0-0-0--1--1/2---2--2-2-2-2--1--0---0--0-0-0-0--0--0---3--3--3-3-3-3-----|
C|-0---0--0-0-0-0--1--1/2---2--2-2-2-2--1--0---0--0-0-0-0--0--0---2--2--2-2-2-2-----|
G|-2---2--2-2-2-2--3--3/4---4--4-4-4-4--3--2---2--2-2-2-2--2--2---4--4--4-4-4-4-----|

       s  PM---:  s        s  PM---:  s      s  PM---:  s      s  PM---:  s
A|-0---0--0-0-0-0--1--1/2---2--2-2-2-2--1--0---0--0-0-0-0--2--2---2--2-2-2-2--2--2--|
E|-0---0--0-0-0-0--1--1/2---2--2-2-2-2--1--0---0--0-0-0-0--2--3---3--3-3-3-3--3--3--|
C|-0---0--0-0-0-0--1--1/2---2--2-2-2-2--1--0---0--0-0-0-0--2--2---2--2-2-2-2--2--2--|
G|-2---2--2-2-2-2--3--3/4---4--4-4-4-4--3--2---2--2-2-2-2--4--4---4--4-4-4-4--4--4--|

       s  PM---:  s        s  PM---:  s      s  PM---:  s  let ring
A|-0---0--0-0-0-0--1--1/2---2--2-2-2-2--1--0---0--0-0-0-0--0--3---------|
E|-0---0--0-0-0-0--1--1/2---2--2-2-2-2--1--0---0--0-0-0-0--0--3---------|
C|-0---0--0-0-0-0--1--1/2---2--2-2-2-2--1--0---0--0-0-0-0--0--3---------|
G|-2---2--2-2-2-2--3--3/4---4--4-4-4-4--3--2---2--2-2-2-2--2--5---------|


Post-Chorus:

A|-------5-------------5------------3-----------2-------|
E|---3-------3------3-----3------3-----3-----3-----3----|
C|------------------------------------------------------|
G|-0---0---------0------------0-----------0-------------|

A|------3-----------3-----------2-----------0--------|
E|---0-----0-----0-----0-----0-----0-----0-----0-----|
C|-4----------4-----------4-----------4--------------|
G|---------------------------------------------------|

A|-------10---------|
E|---10------10-----| x4
C|------------------|
G|-0----------------|

A|------3--------|
E|---3-----3-----| x4
C|---------------|
G|-0-------------|


Outro:

A|-------5-------------5------------3-----------2-------|
E|---3-------3------3-----3------3-----3-----3-----3----|
C|------------------------------------------------------|
G|-0---0---------0------------0-----------0-------------|

A|------3-----------3-----------2-----------0--------|
E|---0-----0-----0-----0-----0-----0-----0-----0-----|
C|-4----------4-----------4-----------4--------------|
G|---------------------------------------------------|

A|-------10---------|
E|---10------10-----| x4
C|------------------|
G|-0----------------|

   let ring
A|-3---------|
E|-3---------|
C|-0---------|
G|-0---------|


************************************

| /   Slide up
| s   Slap
| PM  Palm mute

************************************

Almost there ...

Sign in to get your own page with links to favourite songs and more. You are just one click away...

Login with Facebook Login with Google