Log in

One click and you are in

Login with Facebook Login with Google

Why sign up and log in

Guitar Tabs Explorer
The Handsome Family bass tabs for Far from any road

Far From Any Road bass tab by The Handsome Family

The Handsome Family bass tabs for Far from any road

Bass tabs

Far from any road
The Handsome Family


Intro:
G|----------|----------|
D|----------|----------|
A|-----7--7-|----------|
E|-5--5-----|-5--5-0-3-|
Verse:
G|--------|-----------|---------|------------|----------|-----------|---------|----------|----------|
D|--------|-----------|-----7-7-|------------|----------|-----------|-----7-7-|----------|----------|
A|-----7--|-------2-3-|-5--5----|-------7--7-|----------|-----22-3--|-5--5----|-----7--7-|----------|
E|-5--5-3-|-0--0------|---------|-5--5-------|-5--5-3-1-|-0--0------|---------|-5--5-----|-5--5-5-7-|
                                * "22" means "play 2nd fret two times fast",
                                 not "22nd fret"


Chorus:
G|------------|------------|----------|-----------|----------|---------|----------|----------|
D|------------|------------|----------|-----------|-----7--7-|-----7---|----------|----------|
A|-----10--10-|------------|-----5--5-|-----88-7--|-5--5-----|-5--5--5-|-----3--3-|----------|
E|-8--8-------|-8--8-00-1--|-3--3-----|-3--3------|----------|---------|-1--1-----|-1--1-1-3-|

G|----------|----------|---|
D|----------|----------|---|
A|-----7--7-|----------|---|
E|-5--5-----|-5--5-0-3-|-5-|


Intro x2

Verse

Chorus

Intro

Verse

Chorus

Intro x2

Verse

Chorus (repeat 2nd to last and 3rd to last measures for 4 times)

Almost there ...

Sign in to get your own page with links to favourite songs and more. You are just one click away...

Login with Facebook Login with Google