Log in

One click and you are in

Login with Facebook Login with Google

Why sign up and log in

Guitar Tabs Explorer
Herbie Hancock bass tabs for Cantaloupe island

Cantaloupe Island bass tab by Herbie Hancock

Herbie Hancock bass tabs for Cantaloupe island

Bass tabs

Cantaloupe Island.btab
Herbie Hancock

Basstab by Jan Bjorklund, Finland;
jani_bjorklund@yahoo.se
You are welcome to request for basstabs or standard notation!
Bienvenidos a pedirme transcripciones para el bajo!

TablEdited by Jan Bjorklund for Viktor

Tuning : E A D G 	Time Signature: 4/4

 |    |    |    |    |    |    |    |
|--------------------------------|--------------------------------|
|--------------------------------|--------------------------------|
|8-----------------------6---8---|8-----------------------6---8---|
|------------8-------------------|------------8-------------------|

 |    |    |    |    |    |    |    |
|--------------------------------|--------------------------------|
|--------------------------------|--------------------------------|
|8-----------------------6---8---|8-----------------------6---8---|
|------------8-------------------|------------8-------------------|

 |    |    |    |    |    |    |    |
|--------------------------------|--------------------------------|
|--------------------------------|--------------------------------|
|8-----------------------6---8---|8-----------------------6---8---|
|------------8-------------------|------------8-------------------|

 |    |    |    |    |    |    |    |
|--------------------------------|--------------------------------|
|--------------------------------|--------------------------------|
|8-----------------------6---8---|8-----------------------6---8---|
|------------8-------------------|------------8-------------------|

 |    |    |    |    |    |    |    |
|------------------------4---6---|------------------------4---6---|
|------------6-------------------|------------6-------------------|
|4-------------------------------|4-------------------------------|
|--------------------------------|--------------------------------|

 |    |    |    |    |    |    |    |
|------------------------4---6---|------------------------4---6---|
|------------6-------------------|------------6-------------------|
|4-------------------------------|4-------------------------------|
|--------------------------------|--------------------------------|

 |    |    |    |    |    |    |    |
|--------------------------------|--------------------------------|
|--------------------------------|--------------------------------|
|5-----------5-------------------|5-----------5-------------------|
|--------------------------------|--------------------------------|

 |    |    |    |    |    |    |    |
|--------------------------------|--------------------------------|
|--------------------------------|--------------------------------|
|5-----------5-------------------|5-----------5-------------------|
|--------------------------------|--------------------------------|

 |    |    |    |    |    |    |    |
|--------------------------------|--------------------------------|
|--------------------------------|--------------------------------|
|8-----------------------6---8---|8-----------------------6---8---|
|------------8-------------------|------------8-------------------|

 |    |    |    |    |    |    |    |
|--------------------------------|--------------------------------|
|----------------   och så vidare..........--------------------|
|--------------------------------|--------------------------------|
|--------------------------------|--------------------------------|


http://www.geocities.com/jani_bjorklund/janis.html 1058405404377

Almost there ...

Sign in to get your own page with links to favourite songs and more. You are just one click away...

Login with Facebook Login with Google