Log in

One click and you are in

Login with Facebook Login with Google

Why sign up and log in

Guitar Tabs Explorer
Albert Hammond bass tabs for In my room

Bass tabs

-------------------------------------------------------------------------------
			  In My Room - Albert Hammond Jr
-------------------------------------------------------------------------------


Intro
G|----------------------------------| x3
D|----------------------------------|
A|-5-5--5-5--5-5--5-5--5-5-5-5------|
E|----------------------------------|


G|----------------------------------|
D|----------------------------------|
A|-5-5--5-5--5-5--5-5--8-8--10-10---|
E|----------------------------------|


G|----------------------------------|
D|----------------------------------|
A|-10-9-7--10---5--5-5--5-5--5-5-5-5|
E|----------------------------------|


G|----------------------------------|
D|----------------------------------|
A|-10-9-7--10-9-7-10----------------|
E|----------------------------------|


G|----------------------------------| x2
D|----------------------------------|
A|-5-5--5-5--5-5--5-5--5-5-5-5------|
E|----------------------------------|

G|----------------------------------|
D|----------------------------------|
A|-5-5--5-5--5-5--5-5--8-8--10-10---|
E|----------------------------------|


G|----------------------------------|
D|----------------------------------|
A|-10-9-7--10---5--5-5--5-5--5-5-5-5|
E|----------------------------------|


G|----------------------------------|
D|----------------------------------|
A|-10-9-7---------------------------|
E|---------5-3-2-3------------------|


G|----------------------------------| x2
D|----------------------------------|
A|-5-5--5-5--5-5--5-5--5-5-5-5------|
E|----------------------------------|


G|----------------------------------|
D|----------------------------------|
A|-5-5--5-5--5-5--5-5--5-5-5-5------|
E|----------------------------------|


G|-------------------------------------------------------------------|
D|-------------------------------------------------------------------|
A|-5-5-5-5-5-5-5-5-9-9-9-7-7-7-5-5-5-5-5-5-2-2-14-14-14-14-14-14-14--|
E|-------------------------------------------------------------------|


G|-------------------------------------------------------------------|
D|-------------------------------------------------------------------|
A|-14-14-14-14-14-14-14-14-14-12-12-12-12-12-12-12-12-10-10-10-10-10-|
E|-------------------------------------------------------------------|

G|-------------------------------------------------------------------|
D|-------------------------------------------------------------------|
A|-10-10-10-10-10-10-10-10-12-10-10-7-7-7-7-7-7-7-7-7-7-7-7-7-7-7-7--|
E|-------------------------------------------------------------------|


G|----------------------------------------------------------------------|
D|-----------12-12--12-12--11-11-11-11--16-16-16-16-16-16-17-16-16-16-16|
A|-5-5--5-5-------------------------------------------------------------|
E|----------------------------------------------------------------------|

G|-------------------------------------------------------------------|
D|-9-11-12-12-14-14-14-14-14-14-14-14--------------------------------|
A|-------------------------------------7-7-7-7-9-9-9-9-10-10-10-10-10|
E|-------------------------------------------------------------------|

G|-------------------------------------------------------------------|
D|-------------------------------------------------------------------|
A|-10-10-10-10-10-10-10-10-10-10-10----------------------------------|
E|-------------------------------------------------------------------|


Segunda Parte

G|----------------------------------| x2
D|----------------------------------|
A|-5-5--5-5--5-5--5-5--5-5-5-5------|
E|----------------------------------|


G|-----------------------------------------|
D|-----------------------------------------|
A|-5-5-5-5-5-5-5-5-5-5-5--8-8--10-10--12-12|
E|-----------------------------------------|


G|-11------------------------------------------------|
D|----11---------------------------------------------|
A|--------7--------10-----5-5--5-5--5-5--5-5--5-5-5-5|
E|---------------------------------------------------|


G|--------------------------------------------|
D|--------------------------------------------|
A|-5-5-5-5-5-5-5-5-5-5-5-5-5-5-5-5-5-5--------|
E|--------------------------------------------|


G|----------------------------------|
D|----------------------------------|
A|-10-9-7---------------------------|
E|---------5-3-2-3------------------|


G|----------------------------------| x2
D|----------------------------------|
A|-5-5--5-5--5-5--5-5--5-5-5-5------|
E|----------------------------------|


G|----------------------------------|
D|----------------------------------|
A|-5-5--5-5--5-5--5-5--5-5-5-5------|
E|----------------------------------|


G|-------------------------------------------------------------------|
D|-------------------------------------------------------------------|
A|-5-5-5-5-5-5-5-5-9-9-9-7-7-7-5-5-5-5-5-5-2-2-14-14-14-14-14-14-14--|
E|-------------------------------------------------------------------|


G|-------------------------------------------------------------------|
D|-------------------------------------------------------------------|
A|-14-14-14-14-14-14-14-14-14-12-12-12-12-12-12-12-12-10-10-10-10-10-|
E|-------------------------------------------------------------------|

G|-------------------------------------------------------------------|
D|-------------------------------------------------------------------|
A|-10-10-10-10-10-10-10-10-12-10-10-7-7-7-7-7-7-7-7-7-7-7-7-7-7-7-7--|
E|-------------------------------------------------------------------|


G|----------------------------------------------------------------------|
D|-----------12-12--12-12--11-11-11-11--16-16-16-16-16-16-17-16-16-16-16|
A|-5-5--5-5-------------------------------------------------------------|
E|----------------------------------------------------------------------|

G|-------------------------------------------------------------------|
D|-9-11-12-12-14-14-14-14-14-14-14-14--------------------------------|
A|-------------------------------------7-7-7-7-9-9-9-9-10-10-10-10-10|
E|-------------------------------------------------------------------|

G|-------------------------------------------------------------------|
D|-------------------------------------------------------------------|
A|-10-10-10-10-10-10-10-10-10-10-10----------------------------------|
E|-------------------------------------------------------------------|


Final


G|--------------------------------------------------------------------------|
D|--------------------------------------------------------------------------|
A|-0-0-0-0-0-0-0-0-0-0-0-0--2-2-2-2-2-2-2-2-2-2-2-2----3-3-3--5-5-5--7-7-7--|
E|--------------------------------------------------------------------------|


G|--------------------------------------------------------------------------|
D|--------------------------------------------------------------------------|
A|-10-10-10-10-10-10-10-10-10-10-10-10--9-9-9-9--7-7-7-7-7-7-7-7-7-7-7-7----|
E|--------------------------------------------------------------------------|


G|--------------------------------------------------------------------------|
D|--------------------------------------------------------------------------|
A|-12-12-12-12-12-12-12-12-12-12-12-12--14-14-14-14-14-14-14-14-14-14-14-14-|
E|--------------------------------------------------------------------------|


G|--------------------------------------------------|
D|--------------------------------------------------|
A|---5--7--------10-10-10-10-10-10-10-10-10-10-10-10|
E|-7------------------------------------------------|


G|-------------------------------------------------|
D|-------------------------------------------------|
A|-0-0-0-0-0-0-0-0-0-0-0-0-0-0-0-0-0---------------|
E|-------------------------------------------------|
ⓘ Bass guitar tab for 'In My Room' by Albert Hammond, a male pop-rock artist from London, England. Albert Hammond was born in 1944.

Almost there ...

Sign in to get your own page with links to favourite songs and more. You are just one click away...

Login with Facebook Login with Google