Log in

One click and you are in

Login with Facebook Login with Google

Why sign up and log in

Guitar Tabs Explorer
Hammerfall bass tabs for Hearts on fire

Bass tabs

INTRO A
G||------------------------|
D||------------------------|
A||-------------------5-5--|X 1
E||--3--3-----3--3---------|
INTRO B
G||------------------------------|
D||------------------------------|
A||-------------------------5-5--|X 1
E||--3--3----3--3----3--3--------|


VERSE
G|-------------------------------|---------------------------|----------------------|
D|-------------------------------|---------------------------|----------------------|
A|---------------------------5-5-|-------------------6-3-5---|-----------------55---|
E|--3--3----3--3----3-3--3-------|--33-33333333333-----------|--33-33333333333------|

                 END VERSE
G|------------------------------------------|
D|------------------------------------------|
A|---------------5-5-55-5-55-5-5-5-5-6/8----|
E|--33333333333-----------------------------|


PRE-CHORUS A
G|------------------------------|----------------------------------|
D|------------------------------|----------------------------------|
A|-------------------------3p2p0|-------------------------3p2p0----|
E|--5-5-5-5-5-5-5-5-5-5-5-------|--1-1-1-1-1-1-1-1-1-1-1-----------|

G|------------------------------|--------------------|
D|------------------------------|--------------------|
A|-------------------------3p2p0|----------------5---|
E|--5-5-5-5-5-5-5-5-5-5-5-------|--1-1-1-1-h-3/5-----|

CHORUS
G|-----------------------------|-----------------------------------|
D|-----------------------------|-----------------------------------|
A|-----------------------------|----------------5-5-5-5-5-5-5-5----|
E|--7-7-7-7-7-7-7-7-7-7-7-7-7--|--3-3-3-3-3-3-3--------------------|

G|-----------------------------|-----------------------------------|
D|-----------------------------|-----------------------------------|
A|-----------------------------|--3-3-3-3-3-3-3-5-5-5-5-5-5-5-5----|
E|--7-7-7-7-7-7-7-7-7-7-7-7-7--|-----------------------------------|

G|-----------------------------|-------------------------------------------------|
D|-----------------------------|-------------------------------------------------|
A|-----------------------------|----------------5-5-5-5-5-5-5-5-3-3-3-3-3-3-3-2--|
E|--7-7-7-7-7-7-7-7-7-7-7-7-7--|--3-3-3-3-3-3-3----------------------------------|


RIFF 1
G|---------------------------|------------------------|
D|---------5-----------------|-----5---------------3--|
A|---------------5-----6-3-5-|-----------5------6-----|
E|--3-3-33---333---333-------|-333---333---333--------|

G|--------------------------|---------------------------|
D|---------5----------------|---------------------------|
A|---------------5-----6-3--|-5-5-55-5-55-5-5-5-5-6/8---|
E|--3-3-33---333---333------|---------------------------|


VERSE X 1

PRE-CHORUS A X 1

CHORUS X 1


SOLO GUITAR
G|--------------------------|--------------------------|
D|--------------------------|--------------------------|
A|-5-5-55-5-55-5-5-55-5-55--|-1-1-11-1-11-3-3-33-3-----|
E|--------------------------|--------------------------|

G|--------------------------|-----------|
D|--------------------------|-----------|
A|-5-5-55-5-55-5-5-55-5-55--|-1-3-------| Play solo 2 times
E|--------------------------|-----3-1---|


SOLO RYTHM GUITAR
G|-------------------------|--------------------------|
D|-------------------------|--------------------------|
A|-------------------------|--------------------------| X 2
E|--5-5-5-5-5-5-5-5-5-5-5--|--1-1-1-1-1-1-1-1-1-1-1/5-|

BASS SOLO
G|-------------------------|-------------------------|-------------------------|-------------------------|
D|-------------------------|-------------------------|-------------------------|-------------------------|
A|--7-7-7-7-7-7-7-7-7-7-7--|--5-5-5-5-5-5-5-5-5-5-5--|--5-5-5-5-5-5-5-5-5-5-5--|--3-3-3-3-3-3-3-3-3-3-3--|
E|-------------------------|-------------------------|-------------------------|-------------------------|


PRE-CHORUS B
G|----------------------------|
D|----------------------------|
A|-----------3-3-3-3-3-3-3-2--|
E|--7-7-7-7-------------------|


cHORUS X 1


OUTRO
G|----------------------|
D|----------------------|
A|------------------1-3-|
E|--3-3---3-3--3-3------|

By |Lello  (weslleylello@gmail.com)

Almost there ...

Sign in to get your own page with links to favourite songs and more. You are just one click away...

Login with Facebook Login with Google