Log in

One click and you are in

Login with Facebook Login with Google

Why sign up and log in

Guitar Tabs Explorer
Hammerfall chords for Glory to the brave

Guitar chords with lyrics

Hammerfall - Glory To The Brave intro    transcripted by Björn Moldén
-------------------------------------

This is actually supposed to be played on a piano but it works great
on a acoustic guitar or a clean electric guitar:

--1-1-1-0---0--1---------1--0
--3-------3-1--3-3-3-1---1--1
--2---------2--3-------3-2--0
--0---------2--3---------3--2
--x---------0--1---------x--3
--x---------x--1---------x--x

--1-1-1-0-------0-1-1-1-0-1-3
--3-------3---1---3---------1
--2---------2-----3---------0
--0---------------3---------2
--x---------------1---------3
--x---------------1---------x

Then the chords come. You shall play these on a electric guitar with
lots of boost:

A chord diagramDmDm   A chord diagramA minorAm   A chord diagramBb majorBb   A chord diagramFF  A chord diagramC majorC
A chord diagramDmDm   A chord diagramA minorAm   A chord diagramBb majorBb   A chord diagramC majorC

That's it. I hope you enjoyed it.
If you got any different / better version or if you
know the rest of the song, please e-mail me

kissfan_87@hotmail.com

Other versions of Glory To The Brave

Glory to the braveTabs

Almost there ...

Sign in to get your own page with links to favourite songs and more. You are just one click away...

Login with Facebook Login with Google