Log in

One click and you are in

Login with Facebook Login with Google

Why sign up and log in

Guitar Tabs Explorer
Stu Hamm bass tabs for Kings of sleep

Bass tabs

Kings of Sleep
			By Stu Hamm

Opening Theme Bass Riff
                                 Repeat
---14----16-----|----14--------|---14----16---------|---14-------------|
------14--------|-------14-----|------14------------|------14----------|
----------------|--------------|-5------------7-/9--|-7---------7-9-7--|
-5-----------0--|-2------------|--------------------|------------------|
 H T T T  P | H T T   | H T T T  H S | P T T  H H P |


                                   DC
---14----16-----|---14--------------|---14----16------|---14-----------|
------14-----11-|------14--------11-|------14-----11--|------14--------|
-9--------------|-9--------11-12----|-9---------------|-9--------------|
----------------|-------------------|-----------------|----------------|
 H T T T  H | H T T H H H | H T T T  H  | H T T H H P |


Ian Stephenson
ian@ohm.york.ac.uk

Almost there ...

Sign in to get your own page with links to favourite songs and more. You are just one click away...

Login with Facebook Login with Google