Search tabs and chords

Browse bands and artists

A B C D E F G H I J K L M N O P Q R S T U V W X Y Z #

Log in

[ Register here | Forgot password ]

Guitar Tabs Explorer
Print

Guitar tabs :

Without Me tab by Halsey

  • Tuning: Standard
Key: F#


Intro

e|--------------6--4~-----------------1--4--2~-----------|
B|-----------4---------------------2---------------------|
G|-------------------------------------------------------|
D|-----4--6---------------------3------------------------|
A|--6------------------------4---------------------------|
E|-------------------------------------------------------|

e|--------------6--4~-----------------1--4--2~-----------|
B|-----------4---------------------2---------------------|
G|-------------------------------------------------------|
D|-----4--6---------------------3------------------------|
A|--6------------------------4---------------------------|
E|-------------------------------------------------------|

Verse
Found you when your heart was broke...
e|--------------6--4~-----------------1--4--2~-----------|
B|-----------4---------------------2---------------------|
G|-------------------------------------------------------|
D|-----4--6---------------------3------------------------|
A|--6------------------------4---------------------------|
E|-------------------------------------------------------|

Took it so far to keep you close...
e|--------------6--4~-----------------1--4--2~-----------|
B|-----------4---------------------2---------------------|
G|-------------------------------------------------------|
D|-----4--6---------------------3------------------------|
A|--6------------------------4---------------------------|
E|-------------------------------------------------------|

Pre-chorus
Said I'd catch you if you fall...
e|--------------6--4~-----------------1--4--2~-----------|
B|-----------4---------------------2---------------------|
G|-------------------------------------------------------|
D|-----4--6---------------------3------------------------|
A|--6------------------------4---------------------------|
E|-------------------------------------------------------|

And then I got you on your knees...
e|--------------6--4~-----------------1--4--2~-----------|
B|-----------4---------------------2---------------------|
G|-------------------------------------------------------|
D|-----4--6---------------------3------------------------|
A|--6------------------------4---------------------------|
E|-------------------------------------------------------|
Chorus
Thinkin' you could live without me...
e|--------------6--4~-----------------1--4--2~-----------|
B|-----------4---------------------2---------------------|
G|-------------------------------------------------------|
D|-----4--6---------------------3------------------------|
A|--6------------------------4---------------------------|
E|-------------------------------------------------------|
Baby, I'm the one who put you up there...
e|--------------6--4~-----------------1--4--2~-----------|
B|-----------4---------------------2---------------------|
G|-------------------------------------------------------|
D|-----4--6---------------------3------------------------|
A|--6------------------------4---------------------------|
E|-------------------------------------------------------|

Verse
Gave love 'bout a hundred tries...
e|--------------6--4~-----------------1--4--2~-----------|
B|-----------4---------------------2---------------------|
G|-------------------------------------------------------|
D|-----4--6---------------------3------------------------|
A|--6------------------------4---------------------------|
E|-------------------------------------------------------|

Then I took yours and made 'em mine...
e|--------------6--4~-----------------1--4--2~-----------|
B|-----------4---------------------2---------------------|
G|-------------------------------------------------------|
D|-----4--6---------------------3------------------------|
A|--6------------------------4---------------------------|
E|-------------------------------------------------------|

Pre-chorus
Said I'd catch you if you fall...
e|--------------6--4~-----------------1--4--2~-----------|
B|-----------4---------------------2---------------------|
G|-------------------------------------------------------|
D|-----4--6---------------------3------------------------|
A|--6------------------------4---------------------------|
E|-------------------------------------------------------|

And then I got you off your knees...
e|--------------6--4~-----------------1--4--2~-----------|
B|-----------4---------------------2---------------------|
G|-------------------------------------------------------|
D|-----4--6---------------------3------------------------|
A|--6------------------------4---------------------------|
E|-------------------------------------------------------|
Chorus
Thinkin' you could live without me...
e|--------------6--4~-----------------1--4--2~-----------|
B|-----------4---------------------2---------------------|
G|-------------------------------------------------------|
D|-----4--6---------------------3------------------------|
A|--6------------------------4---------------------------|
E|-------------------------------------------------------|
Baby, I'm the one who put you up there...
e|--------------6--4~-----------------1--4--2~-----------|
B|-----------4---------------------2---------------------|
G|-------------------------------------------------------|
D|-----4--6---------------------3------------------------|
A|--6------------------------4---------------------------|
E|-------------------------------------------------------|

Final Chorus
Tell me how's it feel sitting up there...
e|--------------6--4~-----------------1--4--2~-----------|
B|-----------4---------------------2---------------------|
G|-------------------------------------------------------|
D|-----4--6---------------------3------------------------|
A|--6------------------------4---------------------------|
E|-------------------------------------------------------|

Baby, I'm the one who put you up there...
e|--------------6--4~-----------------1--4--2~-----------|
B|-----------4---------------------2---------------------|
G|-------------------------------------------------------|
D|-----4--6---------------------3------------------------|
A|--6------------------------4---------------------------|
E|-------------------------------------------------------|

Thinkin' you could live without me...
e|--------------6--4~-----------------1--4--2~-----------|
B|-----------4---------------------2---------------------|
G|-------------------------------------------------------|
D|-----4--6---------------------3------------------------|
A|--6------------------------4---------------------------|
E|-------------------------------------------------------|


| ~   Vibrato

"Without Me" is a single American singer Halsey released on October 4, 2018. "Without Me" by Halsey features samples from "Cry me a river" by Justin Timberlake.

Other versions of Without Me

Without meChords
Without me (Ver. 2)Chords
Without me (Ver. 3)Chords
Without me (Ver. 4)Chords
Without me (Ver. 5)Chords
Without me ukuleleChords

Comments

Halsey guitar tabs for Without me