Log in

One click and you are in

Login with Facebook Login with Google

Why sign up and log in

Guitar Tabs Explorer
Haloo Helsinki! guitar tabs for Taivaanlaiva

Guitar tabs with lyrics

Tätä oli vissiin toivottu.

Standard tuning!

Jokainen osa toistuu muutamia kertoja, mutta yksittäisten osien kertausmääriä en jaksanut ruveta
laskeskelemaan - biisit pitää jo tuntea, kun niitä ryhtyy opettelemaan.

Intron komppiraita:

   A chord diagramF5F5  A chord diagramC5C5  A chord diagramG5G5
e---------------|
B---------------|
G------5--------|
D--3---5---5----|
A--3---3---5----|
E--1-------3----|

Intron funkkikitara:

  A chord diagramG minorGm         A chord diagramFF       A chord diagramC minorCm     A chord diagramG minorGm      A chord diagramFF   A chord diagramG minorGm
e-------------------------------------------|
B-11-11-11---10-10---8------11--11--10--11--|
G-12-12-12---10-10---8------11--11--10--11--|
D-12-12-12---10-10---10-----12--12--10--12--|
A-------------------------------------------|
E-------------------------------------------|



Säkeissä ei ole kitaroita ollenkaan, mutta bassolinja (ja soinnut) menee näin:

  A chord diagramFF   A chord diagramC minorCm  A chord diagramG minorGm
G-----------------|
D-----------------|
A-----3-----------|
E-1-1----33-3-1-3-|

Pre-choruksessa on vain yksi kitaraliidi. Soinnut on samat kuin säkeessä.

e------------------------------------------------------------|
B-----------------------------10-11~--10-11p10h11p10---------|
G-10--12~--10-12--10-------12-----------------------12-10-12~|
D---------------------12~------------------------------------|
A------------------------------------------------------------|
E------------------------------------------------------------|

e----------------------------------------------------------------------|
B-----------------10-11h10p11h10---------------------------------------|
G-10~------9-10-12--------------12-10-12~---10~------------------------|
D-----10-12---------------------------------------10-12--8-10--7-8--5~-|
A----------------------------------------------------------------------|
E----------------------------------------------------------------------|



Kertsissä ei paljoa tapahdu. Oman mielen mukaan voi fillata intron funkkikitaran jalanjäljillä, mutta
komppiraita kulkee näin:

   A chord diagramF5F5  A chord diagramC5C5  A chord diagramG5G5
e---------------|
B---------------|
G------5--------|
D--3---5---5----|
A--3---3---5----|
E--1-------3----|



C-osassa komppiraita kulkee samaa latua kuin kertseissä ja introssa. Funkkikitara säksättää myös taustalla.

C-osan liidi kulkee näin:

e----------6-5-----------------8-6------------------6-5------------------------|
B-8--8-6-8----6-8-x-x--8--8-6-8----6-8-x-x--8--8-6-8---6-8-x-x-8~-xx-8-8-x-8~~-|
G------------------------------------------------------------------------------|
D------------------------------------------------------------------------------|
A------------------------------------------------------------------------------|
E------------------------------------------------------------------------------|

Almost there ...

Sign in to get your own page with links to favourite songs and more. You are just one click away...

Login with Facebook Login with Google