Search tabs and chords

Search for song, artist or band

Log in

One click and you are in

Login with Facebook Login with Google

Why sign up and log in

Guitar Tabs Explorer
Haloo Helsinki! guitar tabs for Rakas

Guitar tabs

A chord diagramD7D7                                               A chord diagramG minorGm
e|------------------------------------------------|---------------------------|
B|-------------7h8p7---7--------------------------|----------------------6----|
G|-------------------8---8-7----7-----------------|--------------5-7-5-7------|
D|---------------------------10---10-8-7-8-7------|--------5-7-8--------------|
A|-------------------------------------------10-9-|-10------------------------|
E|------------------------------------------------|---------------------------|

  A chord diagramC minorCm                         A chord diagramF7F7                   A chord diagramD7D7
e|--------------------------|-1------------------|------------2-3-5-3h5p3p2---|
B|-6-4p3h4--3p1h3-------6/8-|--------6-8-10-8-6--|-3h4p3p1h3--1---------------|
G|----------------5p3h5-----|--------------------|------------2---------------|
D|--------------------------|--------------------|----------------------------|
A|--------------------------|--------------------|----------------------------|
E|--------------------------|--------------------|----------------------------|

  Gm(9)
e|-3-----5------|-------------------------------------------------------------|
B|-------3------|-------------------------------------------------------------|
G|---3---3------|-------------------------------------------------------------|
D|-------5------|-------------------------------------------------------------|
A|--------------|-------------------------------------------------------------|
E|--------------|-------------------------------------------------------------|


************************************

| h   Hammer-on
| p   Pull-off
| /   Slide up

Other versions of Rakas

RakasChords
Rakasta mua nytChords

Almost there ...

Sign in to get your own page with links to favourite songs and more. You are just one click away...

Login with Facebook Login with Google