Log in

One click and you are in

Login with Facebook Login with Google

Why sign up and log in

Guitar Tabs Explorer
Haloo Helsinki! guitar tabs for Perjantaina

Guitar tabs

Haloo Helsinki!
Perjantaina

A chord diagramE MajorE|----------------------------------------------------------|
A chord diagramA augmentedA|----------------------------------------------------------|
A chord diagramG+G|----------------------------------------------------------|
A chord diagramD MajorD|------0-3-0-0-------0-3-0-0-------0-3-0-0-----------------|
A chord diagramA augmentedA|-----0-------------0-------------0------------------------|
A chord diagramD MajorD|-0--0----------3--0----------0--0----------3--0-3-0-3-4-5-|
|---------------------------------------------------------|
|---------------------------------------------------------|
|---------------------------------------------------------|
|------0-3-0-0-------0-3-0-0-------0-3-0-0-0--------------|
|-----0-------------0-------------0----------5-5-4-4-3-3--|
|-0--0----------3--0----------0--0----------------------5-|


|----------------------------------|
|----------------------------------|
|-7-7--7-7-7--7--7-7--7-7-7--7-7-7-|
|-7-7--7-7-7--7--7-7--7-7-7--7-7-7-|
|-5-5--5-5-5--5--5-5--5-5-5--5-5-5-|
|----------------------------------|


|-------------------------------------------------------|
|-------------------------------------------------------|
|-7-7-7-7-7-7-7-7-----------------5---5---3---3---5~~~~-|2x
|-7-7-7-7-7-7-7-7-3-3-3-3-3-3-3-3-5---5---3---3---5~~~~-|
|-5-5-5-5-5-5-5-5-3-3-3-3-3-3-3-3-3---3---1---1---3~~~~-|
|-----------------1-1-1-1-1-1-1-1-----------------------|


|-------------------------------------------------------------|
|-------------------------------------------------------------|
|-7-7-2---3---5-5-2---7----------------------------3--3--5--5-|2x
|-7-7-2---3---5-5-2---7---3--3-3--3-3--5--5-5--5-5-3--3--5--5-|
|-5-5-0---1---3-3-0---5---3--3-3--3-3--5--5-5--5-5-1--1--3--3-|
|-------------------------1--1-1--1-1--3--3-3--3-3------------|

|----------------------------------------------------------|
|----------------------------------------------------------|
|----------------------------------------------------------|
|------0-3-0-0-------0-3-0-0-------0-3-0-0-----------------|
|-----0-------------0-------------0------------------------|
|-0--0----------3--0----------0--0----------3--0-3-0-3-4-5-|


|---------------------------------------------------------|
|---------------------------------------------------------|
|---------------------------------------------------------|
|------0-3-0-0-------0-3-0-0-------0-3-0-0-0--------------|
|-----0-------------0-------------0----------5-5-4-4-3-3--|
|-0--0----------3--0----------0--0----------------------5-|


|-------------------------------------------------------|
|-------------------------------------------------------|
|-7-7-7-7-7-7-7-7-----------------5---5---3---3---5~~~~-|2x
|-7-7-7-7-7-7-7-7-3-3-3-3-3-3-3-3-5---5---3---3---5~~~~-|
|-5-5-5-5-5-5-5-5-3-3-3-3-3-3-3-3-3---3---1---1---3~~~~-|
|-----------------1-1-1-1-1-1-1-1-----------------------|


|--------------------------------------------------------------|
|--------------------------------------------------------------|
|-7-7-2---3---5-5-2---7----------------------------3--3--5--5--|2x
|-7-7-2---3---5-5-2---7---3--3-3--3-3--5--5-5--5-5-3--3--5--5--|
|-5-5-0---1---3-3-0---5---3--3-3--3-3--5--5-5--5-5-1--1--3--3--|
|-------------------------1--1-1--1-1--3--3-3--3-3-------------|

A chord diagramBb majorBb                             A chord diagramG+G                    A chord diagramA augmentedA       A chord diagramFF
|-0-1-0-1-0-1-0-1-0-1-0-1-0-1-0-1---1---1---1---1---0---0---0---0---|
|---------------------------------3---3---3---3---3---3---3---1---1-|
|-------------------------------------------------------------------|4x
|-------------------------------------------------------------------|
|-------------------------------------------------------------------|
|-------------------------------------------------------------------|


|--------------------------------------------------------------|
|--------------------------------------------------------------|
|-7-7-2---3---5-5-2---7----------------------------3--3--5--5--|3x
|-7-7-2---3---5-5-2---7---3--3-3--3-3--5--5-5--5-5-3--3--5--5--|
|-5-5-0---1---3-3-0---5---3--3-3--3-3--5--5-5--5-5-1--1--3--3--|
|-------------------------1--1-1--1-1--3--3-3--3-3-------------|

Gtr2
|----------------------------------------------------------|
|----------------------------------------------------------|
|----------------------------------------------------------|
|------0-3-0-0-------0-3-0-0-------0-3-0-0-----------------|
|-----0-------------0-------------0------------------------|
|-0--0----------3--0----------0--0----------3--0-3-0-3-4-5-|


|------------------------------------------------------------------|
|------------------------------------------------------------------|
|------------------------------------------------------------------|
|------0-3-0-0-------0-3-0-0-------0-3-0-0-0-----------------------|
|-----0-------------0-------------0----------5-5-4-4-3-3-----------|
|-0--0----------3--0----------0--0----------------------5-0--------|

Almost there ...

Sign in to get your own page with links to favourite songs and more. You are just one click away...

Login with Facebook Login with Google