Search tabs and chords

Search for song, artist or band

Log in

One click and you are in

Login with Facebook Login with Google

Why sign up and log in

Guitar Tabs Explorer
Haloo Helsinki! guitar tabs for Maailman toisella puolen solo

Maailman Toisella Puolen Solo tab by Haloo Helsinki!

Haloo Helsinki! guitar tabs for Maailman toisella puolen solo

Guitar tabs

Haloo Helsinki - Maailman toisella puolen (2011)

Chords:

A chord diagramE minorEm | A chord diagramFF | A chord diagramC majorC | A chord diagramG MajorG |

Solo

e------------------------------------------------------------------------------|
b----------------------------------------------------------------------1-3-5---|
g--4---2--4--5------0h2-0h2--0-----------------------0-2-4----2--4-------------|
d-------------------------------------0h2-0h2--0----2--------------------------|
a------------------------------------------------------------------------------|
e------------------------------------------------------------------------------|

e---3h5-3h5-3-----8--7h8p7---8--10---12---|
b-----------------------------------------|
g-----------------------------------------|
d-----------------------------------------|
a-----------------------------------------|

Almost there ...

Sign in to get your own page with links to favourite songs and more. You are just one click away...

Login with Facebook Login with Google