Log in

One click and you are in

Login with Facebook Login with Google

Why sign up and log in

Guitar Tabs Explorer
Halo tabs for Here i am

Guitar tabs

Artist : Halo
Song : Here I A chord diagramA minorAm - (Piano arr. for guitar + guitars)
Album : Lunatic Ride
Track : 8
Tab By : Steven Harrington
E-Mail : ste@tazz2000.fsnet.co.uk
 

FOR PIANO ARR. FOR GUITAR:
 

INTRO
 
E-||-----------------------------1----||-
B-||-1---1---2---2---1---1---2--------||-
G-||----------------------------------||-
D-||---3---3---3---3---3---3---3---3--||-
 


VERSE 1
 
(0:13)  Do you know what the hell.....
E-||----------------------------------||-
B-||-1---1---2---2---1---1---2---2----||-
G-||----------------------------------||-
D-||---3---3---3---3---3---3---3---3--||-
 

(0:20) Do you know, do you care.....
E-||----------------------------------||-
B-||-1---1---2---2---1---1---2---4----||-
G-||----------------------------------||-
D-||---3---3---3---3---3---3---3---3--||-
 

(0:27) They ask me, for answers....
E-||----------------------------------||-
B-||-2---2---2---2---2---2---2---2----||-
G-||----------------------------------||-
D-||---3---3---3---3---3---3---3---3--||-
 

(0:33) 
E-||-----------------------------1----||-
B-||-1---1---2---2---1---1---2--------||-
G-||----------------------------------||-
D-||---3---3---3---3---3---3---3---3--||-
 

VERSE 2
 
(0:40) It's alright, were not....
E-||-----------------------------1----||-
B-||-1---1---2---2---1---1---2--------||-
G-||----------------------------------||-
D-||---3---3---3---3---3---3---3---3--||-
 

(0:47) Did you hear....
E-||----------------------------------||-
B-||-1---1---2---2---1---1---2---4----||-
G-||----------------------------------||-
D-||---3---3---3---3---3---3---3---3--||-
 

(0:54) They ask me, for...
E-||----------------------------------||-
B-||-2---2---2---2---2---2---2---2----||-
G-||----------------------------------||-
D-||---3---3---3---3---3---3---3---3--||-
 

(1:00)
E-||--------------------||-
B-||-1---1---2---2---1--||-
G-||--------------------||-
D-||---3---3---3---3----||-
 


CHORUS
 
(1:07) So come on God....
E-||---------------------------------||-
B-||-4---4---4---4---2---2---4---4---||-
G-||---------------------------------||-
D-||---3---3---3---3---3---3---3---3-||-
 

(1:13) Am....
E-||----------------------------------||-
B-||-1---1---2---2---1---1---2---2----||-
G-||----------------------------------||-
D-||---3---3---3---3---3---3---3---3--||-
 

(1:20) So come on God....
E-||------------------------------------||-
B-||-4---4---4---4---2---2---4---4---1--||-
G-||------------------------------------||-
D-||---3---3---3---3---3---3---3---3----||-
 


VERSE 3 (1:37) as VERSE 2
 

CHORUS (2:00)
 

BRIDGE (2:19) - Do nothing here, its only bass and guitar 1
 

CHORUS (2:26) x4
 

OUTRO
 
(3:16) x2
E-||----------------------------------||-
B-||-1---1---2---2---1---1---2---2----||-
G-||----------------------------------||-
D-||---3---3---3---3---3---3---3---3--||-
 
End on....
E-||-----||-
B-||-1---||-
G-||-----||-
D-||-----||-
 
 
 
FOR GUITAR 1:
 
(0:53)
ever hear me...      They ask me....
E-||------------------------------------13--||-
B-||-----------13---11-13-14---14-13-11-----||-
G-||----------------------------------------||-
D-||----------------------------------------||-
 
(0:58) Dont ask me..
E-||----------------------13--||-
B-||--11-13-14---14-13-11-----||-
G-||--------------------------||-
D-||--------------------------||-
 
      (1:32)   (1:36)   (1:39)   (1:42)   (1:45)  
E-||---------------------------------------------||-
B-||--14-13----14-13----14-13----14-13----14-13--||-
G-||---------------------------------------------||-
D-||---------------------------------------------||-
 
      (1:47)
E-||----------------------13--||-
B-||--11-13-14---14-13-11-----||-
G-||--------------------------||-
D-||--------------------------||-
 
      (1:51)
E-||----------------------13--||-
B-||--11-13-14---14-13-11-----||-
G-||--------------------------||-
D-||--------------------------||-
 
      (1:55)     
E-||---------||-
B-||--14-13--||-
G-||---------||-
D-||---------||-
 

BRIDGE (2:19)
 
FOR GUITAR 2 - Distortion
 
Repeat, getting louder
G-||------------||-
D-||---3--------||-
A-||---3--------||-
E-||-1----------||-
 

(2:25)
      hear me..   save me..     hear I      am..    x4
G-||--8------------6------------8----------------||-
D-||--8------------6------------8-----------3----||-
A-||--6------------4------------6-----------3----||-
E-||----------------------------------------1----||-

Other versions of Here I Am

Here I amChords

Almost there ...

Sign in to get your own page with links to favourite songs and more. You are just one click away...

Login with Facebook Login with Google