Log in

One click and you are in

Login with Facebook Login with Google

Why sign up and log in

Guitar Tabs Explorer
Johnny Hallyday bass tabs for Que je taime

Bass tabs with lyrics

Johnny Halliday - que je t'aime

Album: Master serie Vol.1
Tabbed by: Jan Troeschel

Listen to the song for precise timing
Intro

G------------------------------------
D---5-----3-----1-----0-----0--2--4--
A------------------------------------
E------------------------------------


Verse


G--------7--7--7-----------5--5--3--------------------------------------
D-5---------------3-----------------5--0--1-----0-----0--2--4--5--------
A--------------------5-----------------------------------------------5--
E-----------------------------------------------------------------------


G--------------------------7--5--5--------
D-5-------3-----1---\0-----------------3--
A----5\3----------------------------5-----
E-----------------------------------------


Chorus


G----------------------------5--3--------------------------------------
D-5--5--5--5--5--------------------5-----3--3--3--3--3-----------0-----
A----------------3--3--3--------------3-----------------1--1--3--------
E----------------------------------------------------------------------



Bridge (between Chorus and Verse)


G-------
D-5-----
A-------
E-------

(Play twice after the second Chorus, three times after
the third and so on)


Outro (without Bridge after the last Chorus)

G-------------------
D-5-----------5-----
A-------3-----------
E-------------------


If there are any questions, email me:
jantroeschel@yahoo.com


==          http://www.his.com/~gse/bucket  ==

Almost there ...

Sign in to get your own page with links to favourite songs and more. You are just one click away...

Login with Facebook Login with Google