Log in

One click and you are in

Login with Facebook Login with Google

Why sign up and log in

Guitar Tabs Explorer
Hall And Oates tabs for Youre much too soon

Guitar tabs with lyrics

"You’re Much Too Soon" by  Hall & Oates
From the album "War Babies" (1974)


Intro:
 A chord diagramEMaj7Emaj7     A chord diagramBMaj7Bmaj7

 A chord diagramEMaj7Emaj7     A chord diagramBMaj7Bmaj7   A chord diagramC#Maj7C#maj7

 A chord diagramEMaj7Emaj7     A chord diagramBMaj7Bmaj7

Verse:

 A chord diagramEMaj7Emaj7           A chord diagramBMaj7Bmaj7
 Can’t find..

 A chord diagramEMaj7Emaj7           A chord diagramBMaj7Bmaj7   A chord diagramC#Maj7C#maj7
 By now..

 A chord diagramEMaj7Emaj7           A chord diagramD#m7D#m7   A chord diagramG#m7G#m7
 Anybody else..


Chorus:
      A chord diagramC#m7C#m7   A chord diagramBMaj7Bmaj7  A chord diagramA#m7A#m7
You’re much  too    much    (x3)

    A chord diagramD#m7D#m7   A chord diagramG#m7G#m7
 Too  soooon

 A chord diagramC#m7C#m7     A chord diagramD#m7D#m7     A chord diagramE MajorE        A chord diagramF#F#
 Much     too     much

 (see riff below)
 Too sooon

 (Repeat Verse/Chorus)


Bridge:
 A chord diagramC# minorC#m    A chord diagramE MajorE     A chord diagramA augmentedA     A chord diagramG# minorG#m

 A chord diagramC# minorC#m                  A chord diagramE MajorE   A chord diagramA augmentedA  A chord diagramG# minorG#m
 Dont get too heavy..

 A chord diagramC# minorC#m                  A chord diagramE MajorE   A chord diagramA augmentedA  A chord diagramG# minorG#m
 You’ve only..

 A chord diagramC# minorC#m                  A chord diagramE MajorE   A chord diagramA augmentedA   A chord diagramG# minorG#m
 Gotta keep it..

 A chord diagramC# minorC#m                  A chord diagramE MajorE
 Gotta keep it real..

 A chord diagramA augmentedA          A chord diagramG# minorG#m
 Anything..

 A chord diagramF# minorF#m     A chord diagramG# minorG#m   A chord diagramC# minorC#m
 Everything.

 A chord diagramA augmentedA             A chord diagramG# minorG#m
 All comes down..

 F#6/G#                A chord diagramG#6G#6
 I love you..but I don’t love you..

 F#6/G#               A chord diagramG#6G#6
 I love you..

 (Back to Verse Chords)
 Outro:

 A chord diagramEMaj7Emaj7                 A chord diagramBMaj7Bmaj7
 Let it go let it go..

 A chord diagramEMaj7Emaj7                A chord diagramBMaj7Bmaj7
 I know I know..

 A chord diagramEMaj7Emaj7        A chord diagramD#m7D#m7      A chord diagramG#m7G#m7
 Let it go..

 A chord diagramC#m7C#m7     A chord diagramD#m7D#m7      A chord diagramE MajorE
 I know..

 etc..


 Okay, guitar time. First off, I’ll just suggest chords to play. What
I mean is,
 I’m not entirely sure where on the neck those above chords are being
played
 in each case. The rhythm guitar part is somewhere buried in the mix,
so it’s not
 the clearest thing to hear. But I want to at least give some sorts
of chords.
 Then, I’ll try to tab out bits and pieces of Todd’s lead guitar.

 A chord diagramEMaj7Emaj7 - x79897
 A chord diagramBMaj7Bmaj7 - x24342
 A chord diagramC#Maj7C#maj7 - x46564
 A chord diagramC#m7C#m7 - x46454
 A chord diagramC# minorC#m - x46654
 A chord diagramD#m7D#m7 - x68676
 A chord diagramG#m7G#m7 - 464444
 A chord diagramG# minorG#m -  466444
 A chord diagramA#m7A#m7 - x13121
 A chord diagramE MajorE -    x79997
 A chord diagramA augmentedA -    577655
 A chord diagramF#6F#6 - (below)
 A chord diagramG#6G#6 - (below)


E---11---------11s9----------------------------------------------
B------12------------11------------------------------------------
G---------13------------11---------------------------------------
D--------------------------11v-----------------------------------
A----------------------------------------------------------------
E----------------------------------------------------------------
E---11---------11s9----------------------------------------------
B------12------------11------------------------------------------
G---------13------------11---13v---------------------------------
D----------------------------------------------------------------
A----------------------------------------------------------------
E----------------------------------------------------------------
^Those are the arpegios Todd plays in the intro, and also at other
points
 in the verse.
E----16--14--11----------------------------------------------------
B----16--14--11----------------------------------------------------
G----------------------------------------------------------------
<--this little hook is played
D----------------------------------------------------------------
each time Daryl sings, "You’re
A----------------------------------------------------------------
much too much.."
E----------------------------------------------------------------

E---11--9--7--9--11--7-------------------------------------------
<---slide between all of those
B---11--9--7--9--11--7-------------------------------------------
G----------------------------------------------------------------
D----------------------------------------------------------------
A----------------------------------------------------------------
E----------------------------------------------------------------
 "Too soooon"

 Listen to the recording to get an idea for the timing on those,
because I’m not good at
 accurately tabbing that sort of stuff.
 Bridge:

E---11s12-12-12---11s12-12-12-12---------------------------------
B---11s12-12-12---11s12-12-12-12---------------------------------
G---11s13-13-13---11s13-13-13-13---------------------------------
D----------------------------------------------------------------
A----------------------------------------------------------------
E----------------------------------------------------------------
   ^Those are played fast, so again, listen to the record
   to get an idea of the timing. I’m just trying to get the
   actual notes down.

 Todd’s solo-ish thingies:
 During the bridge, there’s a part where Todd mimics Daryl’s vocal
melody
 with a fast little guitar riff. I’ll try to tab out some of that
here.
 I’ll quote the corresponding vocal underneath each tab.

E-------------14--pb16r14--12h14p12----------------------------
B--14-14--17----------------------------------------------------
G----------------------------------------------------------------
D----------------------------------------------------------------
A----------------------------------------------------------------
E----------------------------------------------------------------
  "Dont get too heavy babe" (pb = prebend)

E---14-16-16-14-12-14-12-pb16r14--12h14p12-------------------
B----------------------------------------------------------------
G----------------------------------------------------------------
D----------------------------------------------------------------
A----------------------------------------------------------------
E----------------------------------------------------------------
  "You’ve only known me for a week"

E--------------14--16p14--12-14--pb16r14--12h14p12------------
B---14-14--17---------------------------------------------------
G----------------------------------------------------------------
D----------------------------------------------------------------
A----------------------------------------------------------------
E----------------------------------------------------------------
  "Gotta keep it steady babe"

E--16-16-14-12-(x4)-------21v-----------------------------------
B----------------------------------------------------------------
G----------------------------------------------------------------
D----------------------------------------------------------------
A----------------------------------------------------------------
E----------------------------------------------------------------
  "Gotta keep it real"

 There’s some more to that solo, just a few more things..but I’m too
lazy.

 The next guitar part I’ll tab are his little arpegios in the "I love
you, but I don’t love you" part.

 Kinda hard to hear this closely, so it’s an approximation:

E------9--------9-----------9--11--9-------------------------
B--------11--------11-----------------11---11----------------
G--11--------11--------11----------------9-------------------
D------------------------------------------------------------
A------------------------------------------------------------
E------------------------------------------------------------
  A chord diagramF#6F#6

E------11--------11--------11----13--11--------------------------
B---------13--------13------------------13------13---------------
G--13--------13--------13------------------11--------------------
D----------------------------------------------------------------
A----------------------------------------------------------------
E----------------------------------------------------------------
 A chord diagramG#6G#6
 And then it goes back to the main verse again.

Almost there ...

Sign in to get your own page with links to favourite songs and more. You are just one click away...

Login with Facebook Login with Google