Log in

One click and you are in

Login with Facebook Login with Google

Why sign up and log in

Guitar Tabs Explorer
Hall And Oates bass tabs for Private eyes

Bass tabs

Tuning: Standard (E A D G)


Intro:
G|-----------------|-----------------|--------|-----------------------|--------------------|
D|-----------------|-----------------|--------|-----------------------|--------------------|
A|-----------------|------------15\--|-5------|-5---------------------|-------7----7-------|
E|-5---------------|-----------------|--------|-------3---5-------5---|----------------5---|
G|--------------------|------------------------|--------|---------------------|
D|-------7-------7----|------------------------|--------|---------------------|
A|-----------7--------|-5--------5--------5\---|-1------|-1----1--------------|
E|--------------------|------------------------|--------|---------------------|


Verse:

G|------------------------|-------------------5-------|---------------------------|---------------------|
D|------------------------|---------------5-------5---|-6-----------------6-------|---------------------|
A|-3-----3---3--------3---|-3-----3---3---------------|---------------6-------6---|---------------------|
E|------------------------|---------------------------|-------4---4---------------|-6-----6---6-----5---|

G|------------------------|-------------------5-------|---------------------------|---------------------|
D|------------------------|---------------5-------5---|-6-----------------6-------|---------------------|
A|-3-----3---3--------3---|-3-----3---3---------------|---------------6-------6---|---------------------|
E|------------------------|---------------------------|-------4---4---------------|-6-----6---6-----8---|

G|---------------------|--------------------|------------------------|------------------------------|
D|---------------------|--------------------|------------------------|------------------------------|
A|-5-----5---5-----5---|--------------------|------------------------|------------------------------|
E|---------------------|-5--------0---0-----|-4-----4-------4---3----|-3---3---3----3---5-------5---|


Chorus:

G|--------------------|--------------------|---------------------|------------------------------|
D|--------------------|-------7-------7----|---------------------|-----5------------------------|
A|-------7----7-------|-----------7--------|-5-----5---5---------|------------------------------|
E|----------------5---|--------------------|----------------3----|-3-------3--------5-------5---|

G|--------------------|--------------------|-----------------------|---------------------|
D|--------------------|-------7-------7----|-----------------6--7--|-8--------------8----|
A|-------7----7-------|-----------7--------|-5-----5---5-----------|---------------------|
E|----------------5---|--------------------|-----------------------|-------6---6---------|

G|---------------------------|-----------------|------------------|
D|-8------------8------------|-----------------|------------------|
A|---------------------------|-----------------|------------------|
E|-----6---6--------6---6----|-5---------------|----------12\3----|


Guitar Solo:

G|--------|----------------|--------------|--------|--------|------------------------|---------------------|
D|--------|----------------|--------------|--------|--------|------------------------|---------------------|
A|---12\--|----------------|--------------|--------|--------|------------------------|---------------------|
E|--------|-5---5----------|---------13\--|-4------|-4------|-4---4---4----4-----0---|-3-----3---3----0----|


Bridge:

G|------------------------|------------------------|------------------------|------------------------|
D|------------------------|------------------------|------------------------|------------------------|
A|-5--------5---5---------|-5--------5---5---------|-5--------5---5---------|-5--------5---5---------|
E|--------------------5---|-------------------5----|--------------------5---|-------------------5----|


G|------------------------|------------------------------|---------------------------------|
D|------------------------|------------------------------|---------------------------------|
A|------------------------|------------------------------|---------------------------------|
E|-3--------3---3-----3---|-3--------3---3---0---1---2---|-3---3---3---3---3---3---3---3---|

G|---------------------------------|-----------------|--------|--------|------------------------------|
D|---------------------------------|-----------------|--------|--------|------------------------------|
A|---------------------------------|-----------------|--------|--------|------------------------------|
E|-0---0---0---0---0---0---3---0---|-5---------------|--------|--------|-----3---3----3---5-------5---|


Final Chorus:

G|--------------------|--------------------|--------------------|------------------------------|
D|--------------------|-------7-------7----|--------------------|------------------------------|
A|-------7----7-------|-----------7--------|-5--------5---5-----|--------------7---------------|
E|----------------5---|--------------------|--------------------|-----3---3--------0---0---5---|


G|--------------------|--------------------|------------------------|------------------------------|
D|--------------------|-------7-------7----|------------------------|------------------------------|
A|-------7----7-------|-----------7--------|-5--------5---5---------|------------------------------| x4
E|----------------5---|--------------------|-------------------3----|-3---3---3----3---5-------5---|

************************************

| \  Slide down

************************************

Almost there ...

Sign in to get your own page with links to favourite songs and more. You are just one click away...

Login with Facebook Login with Google