Log in

One click and you are in

Login with Facebook Login with Google

Why sign up and log in

Guitar Tabs Explorer
Halfcocked chords for I lied

Guitar chords

Halfcocked
"I Lied"
On the album: The Last Star
Tabbed by: Nathan Tobola

Standard Tuning
Whole song played with distortion

    Intro and Verse riff

    |p.m. - -|  |- - - - - - - -|
|------|------------------------------------|
|------|------------------------------------|
|------|------------------------------------|
|------|------------------------------------|
|--9\--|--------4---------------------------|
|--7\--|--2-2-2---2-2-2-2-2-2-2-2--5-5-6-7--|

    Chorus
|-----------------------------------------------------------|
|-----------------------------------------------------------|
|-----------------------------------------------------------|
|--4-4--4--4-4--4--4-4--4-4-9---4-4--4--4-4--4--4-4--4-4-9--|
|--4-4--4--4-4--4--4-4--4-4-7---4-4--4--4-4--4--4-4--4-4-9--|
|--2-2--2--2-2--2--2-2--2-2-5---2-2--2--2-2--2--2-2--2-2-7--|

    Bridge before solo x4       then:

|--------------------------------|-----------------|
|--------------------------------|-----------------|
|-6-6-6--7-7-7-7-7-7-7-7-7-7-7-7-|-9-9-9-9-9-9-9-9-|
|-6-6-6--7-7-7-7-7-7-7-7-7-7-7-7-|-9-9-9-9-9-9-9-9-|
|-4-4-4--5-5-5-5-5-5-5-5-5-5-5-5-|-7-7-7-7-7-7-7-7-|
|--------------------------------|-----------------|

After the solo, play the verse and chorus again.

Hope you enjoy.
Nato the potatoe@aol.com

Almost there ...

Sign in to get your own page with links to favourite songs and more. You are just one click away...

Login with Facebook Login with Google