Log in

One click and you are in

Login with Facebook Login with Google

Why sign up and log in

Guitar Tabs Explorer
Half Man Half Biscuit tabs for Dye ken ted moult

Guitar tabs

Title: D'Ye Ken Ted Moult?
Band: Half Man Half Biscuit
Album: ACD (1987)

tabbed by scef (email: funnell_teen_spirit@yahoo.com)

bringing half man half biscuit to tha masses!!!
main riff:
e-----------------------------|
B-1-------------------------0-|
G---0---------------------0---|
D-----3-2h3p2-0---0-2-3-2-----|
A---------------3-------------|
E-----------------------------|

e-------------------------|-3/8\3-|
B-1-----------------------|-------|
G---0---------------------|-------|
D-----3-2h3p2-0---0-2-0---|-------|
A---------------3-------3-|-------|
E-------------------------|-------|
                           \       \
                            \       \
                             play 1st time only


there's also this riff which crops up now and again:
e-----1-----1-----1-----1-----1-----1-----3---|
B-----3-----3-----3-----3-----3-----3---0-0-0-|
G---2-----2-----2-----2-----2-----2---0-0---0-|
D-0-----0-----0-----0-----0-----0-----0-------|
A---------------------------------------------|
E---------------------------------------------|

then there's the coda:
e-----------------------------------|
B-------1---------------1---------1-|
G-2/5\2-----------2/5\2-----------3-|
D---------0-2-0-----------0-2-0-2-2-|
A---------------3-----------------3-|
E-----------------------------------|
                                  |
                                   \
                                    \
                                     not completely
                                     sure about this
                                     bit...

there ya go, how catchy is that? enjoy!

i originally posted this tab yesterday but mistyped a
couple of bits (oops) so i've made the adjustments...

Other versions of Dye Ken Ted Moult

Dye ken ted moultChords

Almost there ...

Sign in to get your own page with links to favourite songs and more. You are just one click away...

Login with Facebook Login with Google