Log in

One click and you are in

Login with Facebook Login with Google

Why sign up and log in

Guitar Tabs Explorer
Halestorm bass tabs for Love hate heartbreak

Bass tabs

-------------------------------------------------------------
          LOVE HATE HEARTBREAK - Halestorm
-------------------------------------------------------------
Tuning: Standard E Tuning


INTRO

This entire part (except for the last bar) is in triplets,
which means you play three notes in the timing of one quarter note.

G|-----------------------------------------------------------------------------------------------|
D|-----------------------------------------------------------------------------------------------|
A|-----------------------------------------------------------------------------------------------|
E|0-0-0-0-0-0-0-0-0-3----0-0-0-0-0-0-3-3-2-2-0-0-------------------------------------------------|
B|-------------------3-3-------------------------3-3-3-3-3-3-3-3-3-3-3-3-3-3-3-3-3-3-0-0-0-0-0-0-|

                                      1 + 2 + 3 + 4 +
G|------------------------------------------------------------------------|----------------|
D|------------------------------------------------------------------------|----------------|
A|------------------------------------------------------------------------|----------------|
E|------------------------------------------0-0-0-------------------------|--3-3-3---------|
B|1-1-1-1-1-1-1-1-1-1-1-1-1-1-1-1-1-1-3-3-3-------3-3-3-3-3-3-3-3-3-3-3-3-|----------3-3-3-|


VERSE 1

              (triplets here)
 1 + 2 + 3 + 4 +
G|----------------|    G|----------------------------------------|
D|----------------|    D|----------------------------------------|
A|----------------| x6  A|----------------------------------------|
E|00--0--00-------|    E|----------------------------------------|
B|----------------|    B|1-1-1-----1-------0-0-0-----0-0-0-0-0-0-|

 1 + 2 + 3 + 4 +
G|----------------|    G|------------------------------------------------------------------------------|
D|----------------|    D|------------------------------------------------------------------------------|
A|----------------| x6  A|------------------------------------------------------------------------------|
E|00--0--00-------|    E|------------------------------------------------------------------------------|
B|----------------|    B|1-1-1-----1-------0-0-0-----0-0-0-----1-1-1-----1-------0-0-0-----0-0-0-0-0-0-|


CHORUS

 1 2 3 4 1 2 3 4 1 2 3 4 1 2 3 4 1 2 3 4 1 2 3 4 1 2 3 4 1 + 2 + 3 + 4 +
G|--------------------------------------------------------|----------------|
D|--------------------------------------------------------|----------------|
A|--------------------------------------------------------|----------------|
E|0---0-----------3---3-----------0---0-----------3---3---|--3-3-3---------|
B|--------1---1-----------3---3-----------1---1-----------|----------3-3-3-|


INTERVAL (after 1st Chorus only)

 1 + 2 + 3 + 4 + 1 + 2 + 3 + 4 +
G|--------------------------------|
D|--------------------------------|
A|--------------------------------|
E|0-----------------3-3-3---------|
B|--------------------------3-3-3-|


VERSE 1

              (triplets here)
 1 + 2 + 3 + 4 +
G|----------------|    G|----------------------------------------|
D|----------------|    D|----------------------------------------|
A|----------------| x6  A|----------------------------------------|
E|00--0--00-------|    E|----------------------------------------|
B|----------------|    B|1-1-1-----1-------0-0-0-----0-0-0-0-0-0-|

 1 + 2 + 3 + 4 +
G|----------------|    G|------------------------------------------------------------------------------|
D|----------------|    D|------------------------------------------------------------------------------|
A|----------------| x6  A|------------------------------------------------------------------------------|
E|00--0--00-------|    E|------------------------------------------------------------------------------|
B|----------------|    B|1-1-1-----1-------0-0-0-----0-0-0-----1-1-1-----1-------0-0-0-----0-0-0-0-0-0-|


CHORUS

 1 2 3 4 1 2 3 4 1 2 3 4 1 2 3 4 1 2 3 4 1 2 3 4 1 2 3 4 1 + 2 + 3 + 4 +
G|--------------------------------------------------------|----------------|
D|--------------------------------------------------------|----------------|
A|--------------------------------------------------------|----------------|  x2
E|0---0-----------3---3-----------0---0-----------3---3---|--3-3-3---------|
B|--------1---1-----------3---3-----------1---1-----------|----------3-3-3-|


BRIDGE

 1 + 2 + 3 + 4 + 1 + 2 + 3 + 4 + 1 + 2 + 3 + 4 + 1 + 2 + 3 + 4 +
G|----------------------------------------------------------------|
D|----------------------------------------------------------------|
A|----------------------------------------------------------------|
E|00--0--00-------00--0--00-------00--0--00-------03--3--3--------|
B|--------------------------------------------------------33--3--3|

G|----------------------------------------------------------------|
D|----------------------------------------------------------------|
A|----------------------------------------------------------------|
E|00--0--00-------00--0--00-------00--0--00-------03--3--3--------|
B|--------------------------------------------------------3-------|


CHORUS

 1 2 3 4 1 2 3 4 1 2 3 4 1 2 3 4 1 2 3 4 1 2 3 4 1 2 3 4 1 + 2 + 3 + 4 +
G|--------------------------------------------------------|----------------|
D|--------------------------------------------------------|----------------|
A|--------------------------------------------------------|----------------|  x2
E|0---0-----------3---3-----------0---0-----------3---3---|--3-3-3---------|
B|--------1---1-----------3---3-----------1---1-----------|----------3-3-3-|


ENDING

 1 + 2 + 3 + 4 + 1 + 2 + 3 + 4 + 1 + 2 + 3 + 4 + 1 + 2 + 3 + 4 + 1 + 2 + 3 + 4 +
G|--------------------------------------------------------------------------------|
D|--------------------------------------------------------------------------------|
A|--------------------------------------------------------------------------------|
E|05--5--5--------00000---00000---05--5--5--------00000---00000---05--5--5--------|
B|--------00--0--0------------------------00--0--0------------------------00--0--0|

| / slide up
| \ slide down
| h hammer-on
| p pull-off
| ~ vibrato
| + harmonic
| x Mute note

Almost there ...

Sign in to get your own page with links to favourite songs and more. You are just one click away...

Login with Facebook Login with Google