Log in

One click and you are in

Login with Facebook Login with Google

Why sign up and log in

Guitar Tabs Explorer
Hale guitar tabs for Day you said goodnight

Guitar tabs

This is my first tab...so go easy on me. ;)
Any Questions, leave a comment

The Day You Said Goodnight by Hale
                     2006
INTRO

E-----------------------------|
B---------------------------2-|
G----------9-9-9-----8-9----2-|
D----------9-9-9-----9-9------|
A----------7-7-7-----0-0------|
E-----------------------------|


VERSE

E------------------------------------------------|
B------------------------------------------------|
G----------9-9-9-----8-9----2------6-6--4-4---2--|
D----------9-9-9-----9-9----2------6-6--4-4---2--|        [2X]  Take me as you are..
A----------7-7-7-----0-0-----------4-4--2-2------|
E------------------------------------------------|


PRE-CHORUS

Lead Guitar:

E---0-------0-----0---0------------|
B-----0----0-----0------0----------|
G----8----6-----2------8-----------|
D----------------------------------|       [2X]
A----------------------------------|
E--9-----5-----2-----7-------------|

Rythm:                                                                        And i do....

E---------------------------------------------------|
B---------------------------------------------------|
G--6-6-66-----2-2-22----- 2-2--22---4-4--44---------|        [2X]
D--6-6-66-----2-2-22----- 2-2--22---4-4--44---------|
A--4-4-44---------------------------2-2--22---------|
E-------------------------2-2--22-------------------|


CHORUS

Rythm

E--------------------------------------------------------|
B-------------------------------6-xx-6-xx-6--------------|
G--9-XX-9-xx-9-----8-XX-8-XX-8--6-xx-6-xx-6----222-------|
D--9-XX-9-xx-9-----9-XX-9-XX-9--4-xx-4-xx-4----222-------|      2X
A--7-XX-7-xx-7-----9-XX-9-XX-9---------------------------|
E------------------7-XX-7-XX-7---------------------------|


Lead only does hammer on once at the beggining

D---------7h9--7h9--7h9-|
A-----------------------|
E-----------------------|

----------------------------------------------------------

(REPEAT INTRO)
(REPEAT VERSE)
(REPEAT PRE-CHORUS and CHORUS)

-----------------------------

For the ''if only you could know me.." part goes like this:

E-----------------------------------------------|
B--666--444--------------666---444--------------|
G--666--444----222-------666---444---2-222---2--|
D--444--222----222-------444---222---2-222---2--|
A-----------------------------------------------|
E-------------------------------------2-222-----|

------------------------------

Other versions of Day You Said Goodnight

Day you said goodnightChords

Almost there ...

Sign in to get your own page with links to favourite songs and more. You are just one click away...

Login with Facebook Login with Google