Log in

One click and you are in

Login with Facebook Login with Google

Why sign up and log in

Guitar Tabs Explorer
Josh Halberda tabs for Thank you

Guitar tabs

Artist- Josh Halberda
Song- Thank You
Album- One Time Only
Transcribed by- Josh Halberda

Tuning-
1. A chord diagramE MajorE  4. A chord diagramD MajorD
2. A chord diagramBB  5. A chord diagramA augmentedA
3. A chord diagramD MajorD  6. A chord diagramE MajorE

I made this song! I use a Telecaster.

h- hammer on
p- pulloff
/- end of section
Intro-2x Clean Tone
E-------2-------------2-------------------------------------
B---3-----3---------3---------3-------------2h3p2-----------
G-----2-----2-----2-------4-----4---------2-------2---------
D-0-----------0-------------4-----4-----2-----------2-------
A---------------4-------2-----------2-0---------------------
E-----------------------------------------------------------


E-------3-------------3-------0------------------------/----
B-----3---3---------3-------0---0-------------2h3p2----/----
G---0-------0-----0-------0-------0---------2-------2--/----
D-------------0---------------------2-----2-----------2/----
A-------------------------------------2-0--------------/----
E-3-------------2-------0------------------------------/----

2x Distortion    Verse-4x    Chorus-2x       Verse-4x
E----------------/-----------/---------------/-----------/--
B----------------/-----------/---------------/-----------/--
G-7-7-4-2--------/7----------/7-7-4-2--------/7----------/--
D-7-7-4-2-5-4-2-7/7-7-5-4-2-7/7-7-4-2-5-4-2-7/7-7-5-4-2-7/--
A-5-4-2-0-5-4-2-7/5-7-5-4-2-7/5-4-2-0-5-4-2-7/5-7-5-4-2-7/--
E---------3-2-0-5/--5-3-2-0-5/--------3-2-0-5/--5-3-2-0-5/--

                                  Rhythm Figure 1-2x w/distortion

Riff A-2x Clean Tone             Riff A-2x w/distortion
E--------------------------------/--------/-----------------
B--------------------------------/--------/-----------------
G-----7-6-----------4-----7-7-7-7/-7-----7/-----------------
D---7-----7-------5---5---7-7-7-7/-7-7-5-7/-----------------
A-5---------7-----------5-5-5-5-5/-5-7-5-5/-----------------
E-------------5-3----------------/---5-3--/-----------------

RF1-2x

Riff B-1x
E--------------------------------------/--------------------
B---------------------7-----8p7---7----/----------------7---
G-7h9p7---------7-7h9---9p7-----9---9p7/6-------4-------7---
D-------7-5h7p5------------------------/--7-------5-----7---
A--------------------------------------/----7-------5---5---
E--------------------------------------/------5-------3-----

                  RF1-4x
                  Riff B-2x
E----------------/--------------------------------------/---
B-8-10-8-7-8-10-8/---------------------7-----8p7---7----/---
G-7-7--7-7-7-7--7/-7h9p7---------7-7h9---9p7-----9---9p7/---
D-7-7--7-7-7-7--7/-------7-5h7p5------------------------/---
A-5-5--5-5-5-5--5/--------------------------------------/---
E----------------/--------------------------------------/---


Ending
E---------------------------------10-10/--------------------
B-----------------7-8-10-8-7-8-10-10-10/--------------------
G-6h7h9-----------7-7-7--7-7-7-7-------/--------------------
D-------7-5h7h9---7-7-7--7-7-7-7-------/--------------------
A---------------5-5-5-5--5-5-5-5-------/--------------------
E--------------------------------------/--------------------

Almost there ...

Sign in to get your own page with links to favourite songs and more. You are just one click away...

Login with Facebook Login with Google