Log in

One click and you are in

Login with Facebook Login with Google

Why sign up and log in

Guitar Tabs Explorer
Josh Halberda tabs for No fear

Guitar tabs

Artist- Josh & Eric
Song- No Fear
Album- One Time Only
Transcribed by- Josh Halberda

Tuning-
1. A chord diagramE MajorE  4. A chord diagramD MajorD
2. A chord diagramBB  5. A chord diagramA augmentedA
3. A chord diagramG+G  6. A chord diagramD MajorD

I made this song myself! I use a American-Made Telecaster in here.

h- hammer on
p- pull off
b- bend string up
r- release bend
\- slide down
/- end of section


Intro-2x Clean Tone
E----------------------------------------------------/1/----
B----------------------------------------------------/3/----
G----------------------------------------------------/2/----
D----------------------------------------------------/0/----
A----------------------------------------------------/0/----
D-0-12-10-12-15-12-10-10h12-0-12-10-12-15-17-14-14h15/0/----


Verse-2x
E----------------------------------------------------/------
B----------------------------------------------------/------
G----------------------------------------------------/------
D----------------------------------------------------/------
A---12-10-12-15-12-10-10h12---12-10-12-15-17-14-14h15/------
D-0-12-10-12-15-12-10-10h12-0-12-10-12-15-17-14-14h15/------

Chorus-2x                Verse-2x
E-1-----1-------0-------1/----------------------------------
B-3-----1-------0-------3/----------------------------------
G-2-----2-------0-------2/----------------------------------
D-0-----3-------2-------0/----------------------------------
A-0-----3-------2-------0/--12-10-12-15-12-10-10h12---12-10-
D-0-0-2-3-3h5p3-2-2h3p2-0/0-12-10-12-15-12-10-10h12-0-12-10-

                    Chorus-2x
E------------------/2-----1-------0-------1/--------/-------
B------------------/3-----3-------0-------3/--------/-------
G------------------/2-----2-------0-------2/--------/-------
D------------------/0-----3-------2-------0/12p10h12/-------
A-12-15-17-14-14h15/0-----3-------2-------0/--------/-------
D-12-15-17-14-14h15/0-0-2-3-3h5p3-2-2h3p2-0/--------/-------


Riff A chord diagramA augmentedA w/Verse
E-----------------------------------------------------------
B-----------------------------------------------------------
G-----------------------------------------12----------------
D---12-10-12-15-12-10-10h12---12-10-12-15----14-15---12-10--
A-----------------------------------------------------------
D-0-------------------------0----------------------0--------


E---------------------------------------------/-------------
B---------------------------------------------/-------------
G---------------------------------12----b14r14/-------------
D-12-15-12-10-10h12---12-10-12-15----15-------/-------------
A---------------------------------------------/-------------
D-------------------0-------------------------/-------------

Rhythm Figure 1 w/Riff A chord diagramBB
E-1-1-0---1-0-0-------1/------------------------------------
B-3-3-1-0-3-0-1-------3/------------------------------------
G-2-2-0-0-2-2-2-------2/------------------------------------
D-0-0-2-0-3-2-2-------0/------------------------------------
A-0-4-3-2-1-0-0-------0/------------------------------------
D-0-------------3h5p3-0/------------------------------------


Riff A chord diagramBB w/RF1
E-----------------------------------------------------------
B-----------------------------------------------------------
G-14h15p14-12-14-14h15p14-14h15p14-12-14-12-10-9----10h12p10
D------------------------------------------------12---------
A-----------------------------------------------------------
D-----------------------------------------------------------

                  Rhythm Figure 2 w/Riff A chord diagramBB w/distortion
E----------------/------------------------------------------
B----------------/------------------------------------------
G-9-10h12p10-9-14/7-7-5-4-3-2-------------------------------
D--------------12/7-7-5-x-3-2-----0-0h3p0h3p0-------0-0h3p0-
A--------------0-/5-4-3-2-1-0-----0-0h3p0h3p0-3h4h5-0-0h3p0-
D--------------0-/0-----------3h5-0-0h3p0h3p0-------0-0h3p0-

                  Verse-2x
E----------------/------------------------------------------
B----------------/------------------------------------------
G----------------/------------------------------------------
D-h3p0-----------/------------------------------------------
A-h3p0-----------/--12-10-12-15-12-10-10h12---12-10-12-15-17
D-h3p0-17p15p12\0/0-12-10-12-15-12-10-10h12-0-12-10-12-15-17

     4x w/wah pedal  Rhythm Figure 3
E---/---------------/---------------------------------------
B---/---------------/---------------------------------------
G---/---------------/---------------------------------------
D---/---------------/---------------------------------------
A-14/0-0-0-0-0-0-0-0/---------------------------------------
D-14/0-0-0-0-0-0-0-0/0-0-12-11-0-0-11-10-0-0-12-11-0-0-11-10


E-----------------------------------------------------------
B-----------------------------------------------------------
G-----------------------------------------------------------
D-----------------------------------------------------------
A-----------------------------------------------------------
D-0-0-12-11-0-0-11-10-0-0-12-11-0-0-12-11-0-0-15-14-0-0-14--


E-----------------------------------------------------------
B-----------------------------------------------------------
G-----------------------------------------------------------
D-----------------------------------------------------------
A-----------------------------------------------------------
D-13-0-0-15-14-0-0-14-13-0-0-12-11-0-0-11-10-0-0-12-11-0-0--


E-----------------------------------------------------------
B-----------------------------------------------------------
G-----------------------------------------------------------
D-----------------------------------------------------------
A-----------15-14-----14-13-----15-14-----14-13-----12-11---
D-11-10-0-0-15-14-0-0-14-13-0-0-15-14-0-0-14-13-0-0-12-11---


E-----------------------------------------------------------
B-----------------------------------------------------------
G-----------------------------------------------------------
D-----------------------------------------------------------
A-----11-10-----12-11-----11-10-----15-14-----14-13---------
D-0-0-11-10-0-0-12-11-0-0-11-10-0-0-15-14-0-0-14-13-0-0-----

                  3x
E----------------/-----------------/------------------------
B----------------/-----------------/------------------------
G----------------/-----------------/------------------------
D----------------/0-0-0-0-0-0-0-0-0/0-0-0-0-----3-------2---
A-15-14-----14-13/0-0-0-0-0-0-0-0-0/0-0-0-0-----3-------2---
D-15-14-0-0-14-13/0-0-0-0-0-0-0-0-0/0-0-0-0-2h3-3-3h5p3-2---

        Ending
E------/----------------------------------------------------
B------/----------------------------------------------------
G------/----------------------------------------------------
D------/----------------------------------------------------
A------/--12-10-12-15-12-10-10h12---12-10-12-15-17-14-14-14h
D-2h3p2/0-12-10-12-15-12-10-10h12-0-12-10-12-15-17-14-14-14h


E----------------------------------------------------------/
B----------------------------------------------------------/
G----------------------------------------------------------/
D----------------------------------------------------------/
A----------------------------------------------------------/
D-15-0-12-10-12-15-12-10-10h12-0-12-10-12-15-17-14-10-11-12/

Almost there ...

Sign in to get your own page with links to favourite songs and more. You are just one click away...

Login with Facebook Login with Google