Log in

One click and you are in

Login with Facebook Login with Google

Why sign up and log in

Guitar Tabs Explorer
Josh Halberda chords for Change me

Guitar chords

Artist- Josh Halberda
Song- Change Me
Album- One Time Only
Transcribed By- Josh Halberda

Tuning
1. A chord diagramE MajorE  6. A chord diagramD MajorD
2. A chord diagramBB  5. A chord diagramA augmentedA
3. A chord diagramG+G  6. A chord diagramE MajorE
I made this song!
/- End of Section

 Intro-2x Clean Tone                       Verse-2x      2x
E-0-0-0-0-0-2-2/0-0-0-0-2/0-0-0-0/0-0-0-0-2-2/0-0-0-0-2-0/-
B-2-0-2-0-2-3-3/2-0-0-0-3/2-0-2-0/2-0-2-0-3-3/2-0-0-0-3-2/-
G-2-2-2-2-2-4-2/2-1-2-4-2/2-2-2-2/2-2-2-2-4-2/2-1-2-4-2-2/-
D-2-2-2-2-2-4-0/2-2-2-2-0/2-2-2-2/2-2-2-2-4-0/2-2-2-2-0-2/-
A-0-0-0-0-0-2--/0-2-2-2--/0-0-0-0/0-0-0-0-2--/0-2-2-2---0/-
E--------------/--0-0-0--/-------/-----------/--0-0-0----/-
 2x           2x               Dist-2x           2x          2x        2x
E-2-2-0-2/2-3-2-0-0-0/-------/--------/------/-------/------
B-3-3-2-2/3-3-3-0-0-0/-------/------- /------/7-8-7-9/------
G-4-2-2-2/2-2-2-1-2-4/------ /--9-7--/-------/7-7-7-9/---11-
D-4-0-2-4/0-0-0-2-2-2/7-9-1-/7-9-7-7/9-12-7-4/7-7-7-9/9-11-
A-2---0-4/------2-2-2/7-9-12/7-7-5-7/9-12-7-4/5-5-5-7/9--9--
E-------2/------0-0-0/5-7-10/5-----5/7-10-5-2/------/7-----
      Ending-2x
E---/--------/------------------------------------------------
B---/--------/------------------------------------------------
G---/--11-9--/-----------------------------------------------
D-14/9-11-9-9/-----------------------------------------------
A-14/9-9--7-9/-----------------------------------------------
E-12/7------7/-----------------------------------------------

Almost there ...

Sign in to get your own page with links to favourite songs and more. You are just one click away...

Login with Facebook Login with Google