Log in

One click and you are in

Login with Facebook Login with Google

Why sign up and log in

Guitar Tabs Explorer
Hairless Mary bass tabs for House of pain

Bass tabs

Band-Hairless Mary
Song-House of Pain
Album-Not a Porno

Dropped-D Tuning
Intro/Verse 1

G|-2------5------2------7------2------5------2------3------|
D|---0-0----3-0----0-0----5-0----0-0----3-0----0-0----1-0--|
A|---------------------------------------------------------|
D|---------------------------------------------------------|


Pre-Chorus

G|-2-------------2-------3----|-2------------2--------3----|
D|---0-0--2-3-0---0-0--3---0--|---0-0--2-3-0---0-0--3---3--|
A|----------------------------|----------------------------|
D|----------------------------|----------------------------|


Chorus
              x?
G|-2-------2----2--------5----|
D|---0-0--3--3----0-0--3---3\-|
A|----------------------------|
D|----------------------------|
              x?
G|-2-------2----2--------5----|
D|---0-0--3--0----0-0--3---3\-|
A|----------------------------|
D|----------------------------|

Verse 2

G|-2-------5------2------7------2------5------2------3------|
D|----0-0----3-0----0-0----5-0----0-0----3-0----0-0----1-0--|
A|----------------------------------------------------------|
D|----------------------------------------------------------|


Pre-Chorus

G|-2-2----------2-2------3----|-2-2----------2-2------3----|
D|-----0--2-3-0-----0--3---0--|-----0--2-3-0-----0--3---3--|
A|----------------------------|----------------------------|
D|----------------------------|----------------------------|


Chorus

G|-2-------2----2--------5----|
D|---0-0--3--3----0-0--3---3--|
A|----------------------------|
D|----------------------------|

G|---2------2------2------5---|
D|-0---0--3---3--0---0--3---3-|
A|----------------------------|
D|----------------------------|


Bridge 1

G|---2------2-----2-----5-------------------------------|
D|-0----0-0---0-3---3-3---3---5------5------------------|
A|--------------------------3----3-3---3-----5------5---|
D|-----------------------------------------5----5-5---5-|

G|---2------2-----2-----5--------------------7------7---|
D|-0----0-0---0-3---3-3---3---5------5----/5----5-5---5-|
A|--------------------------3----3-3---3----------------|
D|------------------------------------------------------|

G|---2------2-----2-----5-------------------------------|
D|-0----0-0---0-3---3-3---3---5------5------12--12--12--|
A|--------------------------3----3-3---3-/10--10--12--0-|
D|------------------------------------------------------|


Bridge 2

G|----------------------------------------------------|
D|*---2------2-----5------5-----7------7-----7------7-|
A|*-0----0-0---0-3----3-3---3/5----5-5---5-0----0-0---|
D|----------------------------------------------------|
-
G|----------------------------------------------------|
D|-----7-----7-----5------5-----7------7-----2------2-|
A|-0-0---0-0---0-3----3-3---3/5----5-5---5-0----0-0---|
D|----------------------------------------------------|

G|----------------------------------------------------|
D|-----2-----2-----5------5-----7------7-----7------7-|
A|-0-0---0-0---0-3----3-3---3/5----5-5---5-0----0-0---|
D|----------------------------------------------------|

G|----------------------------------------------------|
D|-----5-----3-----5------5-----7------7-----2------2-|
A|-0-0---0-0---0-3----3-3---3/5----5-5---5-0----0-0---|
D|----------------------------------------------------|

G|----------------|
D|-----3-----2---*|
A|-0-0---0-0---0-*|
D|----------------|


Chorus


Riff 1                     =20
G|---------------------------------------------------|
D|*-------------------------------------------------*|
A|*-------------------------------------------------*|
D|--3--00-2h3-0-3--00-2h3-0-2--00-2h3-0-7-7-7-5-5-5--|


Riff 2
G|---------------------------------------------------------|
D|*-------------------------------------------------------*|
A|*-------------------------------------------------------*|
D|--3--0000-2h3-0-3--0000-2h3-0-2--0000-2h3-0-7-7-7-5-5-5--|


Outro

G|--2-----2-----5-----3------|
D|*---0-0---0-0---0-0---0-0-*|
A|*-------------------------*|
D|---------------------------|

G|-2-----2-----5---5-3--3-|-2-------|
D|---0-0---0-0---0----0---|---3-----|
A|------------------------|-----3---|
D|------------------------|-------0-|

Almost there ...

Sign in to get your own page with links to favourite songs and more. You are just one click away...

Login with Facebook Login with Google