Log in

One click and you are in

Login with Facebook Login with Google

Why sign up and log in

Guitar Tabs Explorer
Hairless Mary bass tabs for Beauty is the beast

Beauty Is The Beast bass tab by Hairless Mary

Hairless Mary bass tabs for Beauty is the beast

Bass tabs

Band-Hairless Mary
Song-Beauty is the Beast
CD-Tequila Gunpowder
Albino Apache Records

Dropped-D Tuning 4-String (D,A,D,G)

\-Slide
x-Muted note
h-Hammer on
Intro/Chorus

G:|---------------------------|
D:|--------0h2----------------|
A:|-0-3h5-x----x3h5-x2h3------|
D:|----------------------x4h5-|


Verse

G:|-----------------------|
D:|---------------------9-|
A:|-0--3-x\2-x/5-x/7-99---|
D:|-----------------------|

G:|---------------------|
D:|---------------------|
A:|-0--3-x\2-x/5-x/7----|
D:|------------------x5-|


Bridge

G:|----------------------------|
D:|----------------------------|
A:|--------3------0-5h7--------|
D:|-0-3h5-0-00-5h7-----0-5h6---|


Outro

G:|-----------------------|----------------------|
D:|*----------------------|---------------------*|
A:|*-------3-------3------|-------3-------3-----*|
D:|--0-3h5--00-3h5--00-55-|-0-3h5--00-3h5--00-5--|

G:|-----|
D:|-----|
A:|-----|
D:|--0--|

Almost there ...

Sign in to get your own page with links to favourite songs and more. You are just one click away...

Login with Facebook Login with Google