Log in

One click and you are in

Login with Facebook Login with Google

Why sign up and log in

Guitar Tabs Explorer
Haim bass tabs for Something to tell you

Bass tabs

Verse: (No bass at first)
0:25:              0:28:
G|--------------------------------|--------------------------------|
D|--------------------------------|10------------------------------|
A|--------------------------------|----10--------------------------|
E|--------------------------------|--------8---10----------10--10-0|
Prechorus:
G|--------------------------------|--------------------------------|
D|--------------------------------|10----------------------5---7---|
A|--------------------------------|----10--------------------------|
E|5-5-----------5-6\\\\\\\--------|--------8---10----------------0-|

G|--------------------------------|--------------------------------|
D|--------------------------------|10------------------------------|
A|--------------------------------|----10--------------------------|
E|5-5-----------5-6\\\\\\\--------|--------8---10----------8---8-0-|

G|--------------------------------|----------------------------9-10|
D|-------(5-h7)-------------------|10------------------------------|
A|--------------------------------|----10--------------------------|
E|5-5-----------5-6\\\\\\\--------|--------8---10------------------|

G|--9-----------------------------|--------------------------------|
D|----10------8-------------------|12------------------------------|
A|--------11----------------------|----12--------------------------|
E|--------------------------------|--------10---8----------------0-|


Chorus:
G|--------------------------------|--------------------------------|
D|--------------------------------|10------------------------------|
A|--------------------------------|----10--------------------------| (x2)
E|5-5-----------5-6\\\\\\\--------|--------8---10----------------0-|

G|----------------------------5/7-|--------------------------------|
D|--------------------------------|10------------------------------|
A|--------------------------------|----10--------------------------|
E|5-5-----------5-6\\\\\\\--------|--------8---10----------------0-|

G|--------------------------------|--------------------------------|
D|--------------------------------|10------------------------------|
A|--------------------------------|----10--------------------------|
E|5-5-----------5-6\\\\\\\--------|--------8---10----------------0-|

Interlude:
("I wanna never say goodbye")
G|--------------------------------|--------------------------------|
D|--------------------------------|10------------------------------|
A|--------------------------------|----10--------------------------|
E|5-5-----------5-6\\\\\\\--------|--------8---10----------10--10--|

G|--------------------------------|--------------------------------|
D|--------------------------------|12------------------------------|
A|--------------------------------|----12--------------------------|
E|--------------------------------|--------10--8-----------8---8---|

Verse:
G|--------------------------------|--------------------------------|
D|--------------------------------|10------------------------------|
A|--------------------------------|----10----------------------8---|
E|--------------------------------|--------8---10----------10------|

G|--------------------------------|--------------------------------|
D|--------------------------------|12------------------------------|
A|--------------------------------|----12--------------------------|
E|--------------------------------|--------10--8-------------------|

G|--------------------------------|--------------------------------|
D|--------------------------------|10------------------------------|
A|--------------------------------|----10--------------------------|
E|--------------------------------|--------8---10----------10--10--|

G|--------------------------------|--------------------------------|
D|--------------------------------|10------------------------------|
A|--------------------------------|----10------------------7---8---|
E|--------------------------------|--------8---10----------------0-|


Prechorus:
G|------------------------------7-|--------------------------------|
D|--------------------------------|10------------------------------|
A|--------------------------------|----10--------------------------|
E|5-5-----------5-6\\\\\\\--------|--------8---10----------10--10-0|

G|--------------------------------|--------------------------------|
D|--------------------------------|10------------------------------|
A|--------------------------------|----10--------------------------| (x2)
E|5-5-----------5-6\\\\\\\--------|--------8---10----------10--10-0|

G|--------------------------------|--------------------------------|
D|--------------------------------|12------------------------------|
A|--------------------------------|----12--------------------------|
E|5-5-----------5-6\\\\\\\--------|--------10--8-----------8---0---|


Chorus:
G|--------------------------------|--------------------------------|
D|--------------------------------|10------------------------------|
A|--------------------------------|----10--------------------------|
E|5-5-----------5-6\\\\\\\--------|--------8---10----------10--10-0|

G|------------------------10--7---|--------------------------------|
D|--------------------------------|10------------------------------|
A|--------------------------------|----10--------------------------|
E|5-5-----------5-6---------------|--------8---10----------10--10-0|

G|----------------------------7---|----7---9---7-------------------|
D|------------------------8-------|10------------------7-----------|
A|--------------------------------|------------------------8-------|
E|5-5-----------5-6---------------|----------------------------10-0|

G|--------------------------------|--------------------------------|
D|--------------------------------|10------------------------------|
A|--------------------------------|----10--------------------------|
E|5-5-----------5-6---------------|--------8---10----------10--10-0|

Interlude:
("I wanna never say goodbye")
G|--------------------------------|--------------------------------|
D|--------------------------------|10------------------------------|
A|--------------------------------|----10--------------------------|
E|5-5-----------5-6\\\\\\\--------|--------8---10----------10--10--|

G|--------------------------------|--------------------------------|
D|--------------------------------|10------------------------------|
A|--------------------------------|----10-------------------7---8--|
E|--------------------------------|--------8---10------------------|


Bridge:
G|--------------------------------|--------------------------------|
D|------------7---8---------------|10------------------------------|
A|--------10----------------------|----10--------------------------|
E|--------------------------------|--------8---10----------10--10--|

G|--------------------------------|--------------------------------|
D|--------------------------------|10------------------------------|
A|--------------------------------|----10------------------7---8---|
E|--------------------------------|--------8---10------------------|

G|--------------------------------|--------------------------------|
D|------------7---8---------------|10------------------------------|
A|--------10----------------------|----10--------------------------|
E|--------------------------------|--------8---10------------------|

G|------------------------7-------|--------------------------------|
D|--------7---10--8---------------|10------------------------------|
A|--------------------------------|----10--------------------------|
E|--------------------------------|--------8---10----------10--10-0|

G|--------------------------------|--------------------------------|
D|--------------------------------|10------------------------------|
A|--------------------------------|----10--------------------------|
E|5-5-----------5-6\\\\\\\--------|--------8---10----------------0-|

G|--------------------------------|--------------------------------|
D|------------------------7-------|10------------------------------|
A|--------------------------------|----10--------------------------|
E|5-5-----------5-6---------------|--------8---10----------10--10-0|

                            P
G|--------------------------------|--------------------10h12-------|
D|----------------------------7-8-|10------------------------------|
A|--------------------------------|----10--------------------------|
E|5-5-----------5-6\\\\\\\--------|--------8---10----------------0-|

G|--------------------------------|--------------------------------|
D|--------------------------------|12------------------------------|
A|--------------------------------|----12--------------------------|
E|5-5-----------5-6\\\\\\\--------|--------10--8-------------------|


Chorus:
                            P
G|10--7---------------------------|--------------------12h14-------|
D|------10-8----------------------|--------------------------------|
A|------------8-------------------|--------------------------------|
E|--------------6-----------------|--------------------------------|

G|--------------------------------|--------------------------------|
D|----7---------------------------|--------------------------------|
A|--------------------------------|--------------------------------|
E|5-5-----------------------------|------------------------------0-|

G|----------------------------7---|----7---9---7-------------------|
D|------------------------8-------|10------------------7-----------|
A|--------------------------------|------------------------5---5---|
E|5-5-----------5-6\--------------|-------------------------------0|

G|--------------------------------|--------------------------------|
D|--------------------------------|10------------------------------|
A|--------------------------------|----10--------------------------|
E|5-5-----------5-6\--------------|--------8---10----------10----0-|

                            P
G|--------------------------------|--------------------10h12-------|
D|------------------------8-------|10------------------------------|
A|--------------------------------|--------------------------------|
E|5-5-----------5-6\--------------|--------8---10----------------0-|
                            P
G|----------------------------10--|--------------------12h14-------|
D|------------------------------12|10------------------------------|
A|--------------------------------|----10--------------------------|
E|5-5-----------5-6\--------------|--------8---10----------------0-|

G|----------------------------7---|----7---9---7-------------------|
D|------------------------8-------|10------------------7-----------|
A|--------------------------------|------------------------5---5---|
E|5-5-----------5-6\--------------|-------------------------------0|
                            P
G|--------------------------------|--------------------12h14-------|
D|--------------------------------|10------------------------------|
A|--------------------------------|----10--------------------------|
E|5-5-----------5-6\--------------|--------8---10----------------0-|


Outro:
(There's also a synth bass here, tried to mix the two but it's tricky to play)
                            P
G|--------------------------------|--------------------10h12-------|
D|--------------------------------|10------------------------------|
A|--------------------------------|----10--------------------------|
E|5-5-----------5-6\--------------|--------8---10-----------10-10-0|

     P                      P
G|--------7-----------------------|--------------------12h14-------|
D|--------------------------------|10------------------------------|
A|--------------------------------|----10--------------------7-8---|
E|5-5-------5---5-6\--------------|--------8---10----------------0-|

     P                      P
G|--------7-----------------------|--------------------10h12-------|
D|--------------------------------|10------------------------------|
A|--------------------------------|----10--------------------------|
E|5-5-------5---5-6\--------------|--------8---10-----------10-10-0|

     P                      P
G|--------7-----------------------|--------------------12h14-------|
D|--------------------------------|10------------------------------|
A|--------------------------------|----10--------------------7-8---|
E|5-5-------5---5-6\--------------|--------8---10----------------0-|

     P                      P
G|--------7-----------------------|--------------------12h14-------|
D|--------------------------------|10------------------------------|
A|--------------------------------|----10--------------------------|
E|5-5-------5---5-6\--------------|--------8---10-----------10-10-0|

     P
G|--------7-----------------------|--------------------------------|
D|--------------------------------|10------------------------------|
A|--------------------------------|----10---------(fades out...)---|
E|5-5-------5---5-6\--------------|--------8-----------------------|

Almost there ...

Sign in to get your own page with links to favourite songs and more. You are just one click away...

Login with Facebook Login with Google