Log in

One click and you are in

Login with Facebook Login with Google

Why sign up and log in

Guitar Tabs Explorer
Hail The Sun bass tabs for Words of gratitude

Bass tabs

Tuning: Standard (E A D G)


Verse
G||------------------|--------------------|
D||------------------|----------------2~--| x4
A||----2-5-2-0-2-----|----2-5-2-0-2-5-----|
E||--------------2~--|--------------------|


Chorus
G||-----------------------------------------------|
D||-----------------------------------------------|
A||-----------------------------------------------|
E||--3-3---3~-----3-5-7-7---7~-----7/12-12---12~--|


G||--------------------------------------------|
D||--------------------------------------------|
A||--------------------------------------------|
E||--3-3---3~-----3-5-7-7---7~-----7/0-0---0~--|


G||-----------------------------------------------|
D||-----------------------------------------------|
A||-----------------------------------------------|
E||--3-3---3~-----3-5-7-7---7~-----7/12-12---12~--|


G||--------------------------------------------|
D||--------------------------------------------|
A||--------------------------------------------|
E||--3-3---3~-----3-5-7-7---7~-----7/0-0-0-0~--|



Verse
G||------------------|--------------------|
D||------------------|----------------2~--|
A||------------------|----2-5-2-0-2-5-----|
E||------------------|--------------------|


G||------------------|--------------------|
D||------------------|----------------2~--| x3
A||----2-5-2-0-2-----|----2-5-2-0-2-5-----|
E||--------------2~--|--------------------|



Chorus
G||-----------------------------------------------|
D||-----------------------------------------------|
A||-----------------------------------------------|
E||--3-3---3~-----3-5-7-7---7~-----7/12-12---12~--|


G||--------------------------------------------|
D||--------------------------------------------|
A||--------------------------------------------|
E||--3-3---3~-----3-5-7-7---7~-----7/0-0---0~--|


G||-----------------------------------------------|
D||-----------------------------------------------|
A||-----------------------------------------------|
E||--3-3---3~-----3-5-7-7---7~-----7/12-12---12~--|


G||--------------------------------------------|
D||--------------------------------------------|
A||--------------------------------------------|
E||--3-3---3~-----3-5-7-7---7~-----7/0-0-0-0~--|



Bridge
G||----------------------------------|----------------------------------|
D||--5-5------5-5------5-5------5-5--|--4-4------4-4------4-4------4-4--|
A||----------------------------------|----------------------------------|
E||----------------------------------|----------------------------------|


G||----------------------------------|----------------------------------|
D||--2-2------2-2------2-2------2-2--|--0-0------0-0------0-0------0-0--|
A||----------------------------------|----------------------------------|
E||----------------------------------|----------------------------------|


G||-----------------------------------|-----------------------------------|
D||-----------------------------------|-----------------------------------|
A||-----------------------------------|-----------------------------------|
E||--3---3-3-3---3-3-3---3-3-3---3-3--|--2---2-2-2---2-2-2---2-2-2---2-2--|


G||-----------------------------------|----------------------|
D||-----------------------------------|----------------------|
A||-----------------------------------|--5-5-5-5-5-5-5-5-5~--|
E||--0---0-0-0---0-0-0---0-0-0---0-0--|----------------------|



Chorus
G||----------------------------------------------------------------------|
D||----------------------------------------------------------------------| x2
A||----------------------------------------------------------------------|
E||--3-3---3~-----3-5-7-7---7~-----7/12-12-10-12~-----0-0-12~---0-0-12~--|



Outro
G||----------------------------------------------------------------------|
D||----------------------------------------------------------------------|
A||----------------------------------------------------------------------|
E||--3-3-3-3-3-3-3-3-7-7-7-7-7-7-7-7/12-12-10-12~-----0-0-12~---0-0-12~--|


G||---------------------------------------------|
D||---------------------------------------------|
A||---------------------------------------------|
E||--3-3-3-3-3-3-3-3-7-7-7-7-7-7-7-7/0-0-0-12~--|



Tablature 🏷Legend
----------------
 h  hammer-on
 p  pull-off
 b  bend
 pb pre-bend
 r  release bend
 ~  hold / vibrato
 .  palm mute
 /  slide up
 \  slide down
 *  pinch harmonic
 '  natural harmonic
 x  mute note

Almost there ...

Sign in to get your own page with links to favourite songs and more. You are just one click away...

Login with Facebook Login with Google