Log in

One click and you are in

Login with Facebook Login with Google

Why sign up and log in

Guitar Tabs Explorer
Hail The Sun bass tabs for The fun in dysfunction

The Fun In Dysfunction bass tab by Hail The Sun

Hail The Sun bass tabs for The fun in dysfunction

Bass tabs

Difficulty: 0


Tabs for the song: The 'Fun' in Dysfunction by Hail The Sun
Please rate and let me know if you have any corrections. Thank you.

Tuning: Standard (E A D G)


Intro:
G||---------------------------------------------------|
D||---------------------------------------------------|
A||--5-5-5-5-5-5-5-5-5-5-5-5-2-2-2-2-2-2-2-2-2-2-2-2--|
E||---------------------------------------------------|


G||---------------------------------------------------|
D||---------------------------------------------------|
A||--4-4-4-4-4-4-4-4-4-4-4-4-7-7-7-7-7-7-7-7-7-7-7-7--|
E||---------------------------------------------------|


G||---------------------------------------------------|
D||---------------------------------------------------|
A||--5-5-5-5-5-5-5-5-5-5-5-5-2-2-2-2-2-2-2-2-2-2-2-2--|
E||---------------------------------------------------|


G||---------------------------------------------------|
D||---------------------------------------------------|
A||--4-4-4-4-4-4-4-4-4-4-4-4-7-7-7-7-7-7-7-7-7-7-7-7--|
E||---------------------------------------------------|


Pre-Verse:
G||-----------------------------|
D||-----------------------------|
A||--5-5---5-5---5-5--5-5---5~--|
E||-----------------------------|


G||-----|
D||-----|
A||--0--|
E||-----|



Verse:
G||--------7-----------------------------|--------7-----------------------------|
D||-----7--------------------------------|-----7--------------------------------|
A||--5-----------------------------------|--5------------0-0-0---0---2-2-2---2--|
E||---------------2-2-2---2---3-3-3---3--|--------------------------------------|


G||--------7-----------------------------|--------7-----------------------------|
D||-----7--------------------------------|-----7--------------------------------|
A||--5-----------------------------------|--5------------0-0-0---0---2-2-2---2--|
E||---------------2-2-2---2---3-3-3---3--|--------------------------------------|


G||--------7---------------------------------|
D||-----7------------------------------------|
A||--5---------------------------------------|
E||---------------222222222222-333333333333--|



Chorus:
G||------------------------------------------------------|
D||------------------------------------------------------|
A||--555555555555555555555555-000000000000-222222222222--|
E||------------------------------------------------------|


G||------------------------------------------------------|
D||------------------------------------------------------|
A||--555555555555555555555555----------------------------|
E||---------------------------222222222222-333333333333--|


G||------------------------------------------------------|
D||------------------------------------------------------|
A||--555550555550555550555555-000000000000-222222-2-2-2--|
E||------------------------------------------------------|



Bridge:
G||----------------------------------------------------------|
D||----------------------------------------------------------|
A||--2-2-2-2-2-2-9-9-9-9-9-9-10-10-10-10-10-10-9------7-5-0--|
E||----------------------------------------------10-7--------|


G||-----------------------------------------------------------|
D||-----------------------------------------------------------|
A||--2-2-2-2-2-2-9-9-9-9-9-9-10-10-10-10-10-10-10-9----9-7-0--|
E||-------------------------------------------------10--------|


G||---------------------------------------------|
D||---------------------------------------------|
A||--2-2-2-2-2-2-9-9-9-9-9-9-10-10-10-10-10-10--|
E||---------------------------------------------|


Breakdown:
G||-------------|-------------------2-4-2--------|
D||-------------|-------------------------4-2-0--|
A||--2---2---2--|--2---2---2--2-2-2--------------|
E||-------------|--------------------------------|


G||-------------|--------------------|
D||-------------|--------------------|
A||--2---2---2--|--2---2---2--2-2-2--|
E||-------------|--------------------|



Bridge 2:
G||--------------------0-4-7-------------7-4-0--------|
D||---------------------------------------------------|
A||--2---2---2-----2-5-------------------------5-2----|
E||--------------3-----------3---3---2-------------3--|


G||--------------------0-4-7----------------|
D||-----------------------------------------|
A||--2---2---2-----2-5----------------------|
E||--------------3-----------3---3---2-2-2--|



Verse:
G||------------------------------------------------------|
D||------------------------------------------------------|
A||--2-2-2-2-2-2-9-9-9-7-7-7-5-5-5-5-5-5-10-10-10-9-9-9--|
E||------------------------------------------------------|


G||------------------------------------------------------|
D||------------------------------------------------------|
A||--2-2-2-2-2-2-9-9-9-7-7-7-5-5-5-5-5-5-10-10-10-9-9-9--|
E||------------------------------------------------------|



Pre-Chorus:
G||------------------------------|------------------------------|
D||------------------------------|------------------------------|
A||---------------555555-444444--|---------------777777-555555--|
E||--333333333333----------------|--333333333333----------------|


G||------------------------------|------------------------------|
D||------------------------------|------------------------------|
A||---------------555555-444444--|---------------777777-555555--|
E||--333333333333----------------|--333333333333----------------|


G||------------------------------|------------------------------------|
D||------------------------------|------------------------------------|
A||--222222222222-999999-777777--|--555555555555-101010101010-999999--|
E||------------------------------|------------------------------------|
                        (^10's)

G||------------------------------|------------------------------------|
D||------------------------------|------------------------------------|
A||--222222222222-999999-777777--|--555555555555-101010101010-999999--|
E||------------------------------|------------------------------------|


G||------|
D||------|
A||--2~--|
E||------|


Interlude:
G||---------------------------------|
D||---------------------------------|
A||---------------------------------|
E||--0-0-0-0-0-0-2-2-2-2-2-2-2-2-2--|



Bridge 3:
G||-------------------------------------|
D||-------------------------------------|
A||--2~--2-2-2-2-------------5-5---5-5--|
E||--------------0-0-0-0-0-0------------|


G||------------------------------------------------------------|
D||------------------------------------------------------------|
A||----------------------------2--22222--2222/5-5---5-5---5-5--|
E||--3-3-3-3-3-3-0--00000--0000--------------------------------|


G||----------------------------------------------------|
D||----------------------------------------------------|
A||----------------------------------------------------|
E||--3-3-3-3-33330--00--0000002-2-2-2-2-2-2-2-2-2-2-2--|


G||-----------------------------------------|
D||-----------------------------------------|
A||--2--22222--2222--------------5-5---5-5--|
E||----------------0--00000--0000-----------|


G||-----------------------------------------------------------|
D||-----------------------------------------------------------|
A||----------------------------2--22--22--22/5-5---5-5---5-5--|
E||--3--33--33-3-3-0-0-0-0-0-0--------------------------------|


G||------------------------------------------------------------------|
D||--5--55--55--5-4-2--22--22--0-2-4--444444444444-7--7--7--4--4--4--|
A||------------------------------------------------------------------|
E||------------------------------------------------------------------|


G||-----------------------------------------------------------------|
D||-----------------------------------------------------------------|
A||--2-2-2-2-2-2-------------5-5---5-5---5-5--5-5---5-5---5-5---5\--|
E||--------------0-0-0-0-0-0----------------------------------------|



Outro:
G||---------------------------|
D||---------------------------|
A||--2-2-2-2-2-2-2-2-2-2-2-2--|
E||---------------------------|


G||---------------------------------------------------|
D||---------------------------------------------------|
A||--4-4-4-4-4-4-4-4-4-4-4-4-7-7-7-7-7-7-7-7-7-7-7-7--|
E||---------------------------------------------------|


G||---------------------------------------------------|
D||---------------------------------------------------|
A||--5-5-5-5-5-5-5-5-5-5-5-5-2-2-2-2-2-2-2-2-2-2-2-2--|
E||---------------------------------------------------|


G||---------------------------------------------------|
D||---------------------------------------------------|
A||--4-4-4-4-4-4-4-4-4-4-4-4-7-7-7-7-7-7-7-7-7-7-7-7--|
E||---------------------------------------------------|


G||---------------------------------------------------|
D||---------------------------------------------------|
A||--5-5-5-5-5-5-5-5-5-5-5-5-2-2-2-2-2-2-2-2-2-2-2-2--|
E||---------------------------------------------------|


G||---------------------------------------------------|
D||---------------------------------------------------|
A||--4-4-4-4-4-4-4-4-4-4-4-4-7-7-7-7-7-7-7-7-7-7-7-7--|
E||---------------------------------------------------|


G||---------------------------------------------------|
D||---------------------------------------------------|
A||--5-5-5-5-5-5-5-5-5-5-5-5-2-2-2-2-2-2-2-2-2-2-2-2--|
E||---------------------------------------------------|


G||----------------------------------------------6-9--|
D||----------------------------------------6-7-9------|
A||--4-4-4-4-4-4-4-4-4-4-4-4-7-7-7-7-7-7-7------------|
E||---------------------------------------------------|


G||---------------------------|
D||---------------------------|
A||--5-5--5-5--5-5---5-5--5\--|
E||---------------------------|




*****************************
-Tablature 🏷Legend-

 h  hammer-on
 p  pull-off
 b  bend
 pb pre-bend
 r  release bend
 ~  hold / vibrato
 .  palm mute
 /  slide up
 \  slide down
 *  pinch harmonic
 '  natural harmonic
 x  mute note
 T  tap

Almost there ...

Sign in to get your own page with links to favourite songs and more. You are just one click away...

Login with Facebook Login with Google