Log in

One click and you are in

Login with Facebook Login with Google

Why sign up and log in

Guitar Tabs Explorer
Hail The Sun tabs for Jane doe

Guitar tabs

Standard Tuning

|---------------------------|
|---------------------------|
|--4-4-4-4-4-4-4-4-4-4-4-4--|
|---0---0---0---0---0---0---|
|-2---2---------------------|
|---------3---3---2---2-----|

or play it like this

|---------------------------|
|--0-0-0-0-0-0-0-0-0-0-0-0--|
|---------------------------|
|---0---0---0---0---0---0---|
|-2---2---------------------|
|---------3---3---2---2-----|

fill before verse
|------------------|
|------------------|
|--7---6-----------|
|----------9---7---|
|------------------|
|------------------|

0:036
|---------------------------|
|--0-0-0-0-0-0-0-0----------|
|---------------------------|
|---0---0---0---0-----------|
|-5---4---2-----------------|
|-------------5-------------|

and then at 0:39

|---------------------------|
|---0-0-0-0-0-0-0-0-0-0-0-0-|
|---------------------------|
|----0---0---0---0---0---0--|
|---------------------------|
|--2---2---3---3---5---5----|

|------------------------------------|
|-00--------------14-----------------|
|-----11/14-14/16---16-14------------|
|-44---------------------16p14-16*---|  (natural harmonic)
|-22---------------------------------|
|------------------------------------|

|----------------------9-------------|
|-00-------------10--------10--------|
|-----11-9/6--6h7---6h7-(6)----------|
|-44---------------------------------|
|-22---------------------------------|
|------------------------------------|

|------10-9--------------------------|
|-00--------10-----------------------|
|--------------9---------------------|
|-22----------------9----------------|
|-00---------------------------------|
|------------------------------------|

|------12-9--------------------------|
|-00--------10-----------------------|
|--------------11--------------------|
|-22---------------11----------------|
|-00---------------------------------|
|------------------------------------|

The rest is pretty much repeating the earlier parts. It's easy to figure out.

Almost there ...

Sign in to get your own page with links to favourite songs and more. You are just one click away...

Login with Facebook Login with Google