Log in

One click and you are in

Login with Facebook Login with Google

Why sign up and log in

Guitar Tabs Explorer
Hail The Sun bass tabs for Entertainment lies

Bass tabs

Tabs for the song: Entertainment Lies by Hail The Sun
Please rate and let me know if you have any corrections. Thank you.


Tuning: Standard (E A D G)

Intro:
G||------------------------------------------|
D||------------------------------------------|
A||--2-2-2-2-----2-2-2-2-----2-2-2-2---------|
E||--------------------------------------3~--|


G||------------------------------------------|
D||------------------------------------------|
A||--2-2-2-2-----2-2-2-2-----2-2-2-2---------|
E||--------------------------------------0~--|


G||------------------------------------------|
D||------------------------------------------|
A||--2-2-2-2-----2-2-2-2-----2-2-2-2---------|
E||--------------------------------------3~--|


G||------------------------------------------|
D||------------------------------------------|
A||--2-2-2-2-----2-2-2-2-----2-2-2-2---------|
E||--------------------------------------0~--|

Verse:
G||------------------------------------------|
D||------------------------------------------|
A||--2-2-2-2-----2-2-2-2-----2-2-2-2---------|
E||--------------------------------------3~--|


G||------------------------------------------|
D||------------------------------------------|
A||--2-2-2-2-----2-2-2-2-----2-2-2-2---------|
E||--------------------------------------0~--|


G||------------------------------------------|
D||------------------------------------------|
A||--2-2-2-2-----2-2-2-2-----2-2-2-2---------|
E||--------------------------------------3~--|


G||------------------------------------------|
D||------------------------------------------|
A||--2-2-2-2-----2-2-2-2-----2-2-2-2---------|
E||--------------------------------------0~--|



Pre-Chorus:
G||------------------------------------|
D||------------------------------------|
A||--5--/10~------------9-\-7-\-5/10~--|
E||------------------------------------|



Chorus:
G||-----------------------------------------------------------------|
D||-----------------------------------------------------------------|
A||--2---2-2---2-2-2---2-2-2---2-2----------------------------------|
E||----------------------------------0---0-0---0-0-0---0-0-0-0-0-0--|


G||-----------------------------------------------------------------|
D||-----------------------------------------------------------------|
A||-----------------------------------------------------------------|
E||--2----2---2---2---2-2-2-2-2-2---3----3---3---3---3-3-3-3-3-3-3--|


G||-----------------------------------------------------------------|
D||-----------------------------------------------------------------|
A||--2---2-2---2-2-2---2-2-2---2-2----------------------------------|
E||----------------------------------3---3-3---3-3-3---3-3-3-3-3-3--|


G||-----------------------------------------------------------------|
D||-----------------------------------------------------------------|
A||-----------------------------------------------------------------|
E||--2----2---2---2---2-2-2-2-2-2---0----0---0---0---0-0-0-0-0-0-0--|


Pre-Verse:
G||------------------------------------------|
D||------------------------------------------|
A||--2-2-2-2-----2-2-2-2-----2-2-2-2---------|
E||--------------------------------------3~--|


G||------------------------------------------|
D||-----------0-----------2------------------|
A||--2-2-2-2-----2-2-2-2-----2-2-2-2---------|
E||--------------------------------------0~--|



Verse:
G||------------------------------------------|
D||------------------------------------------|
A||--2-2-2-2-----2-2-2-2-----2-2-2-2/---10~--|
E||------------------------------------------|


G||------------------------------------------|
D||------------------------------------------|
A||--2-2-2-2-----2-2-2-2-----2-2-2-2/---7~---|
E||------------------------------------------|


G||------------------------------------------|
D||------------------------------------------|
A||--2-2-2-2-----2-2-2-2-----2-2-2-2/---10~--|
E||------------------------------------------|


G||------------------------------------------|
D||------------------------------------------|
A||--2-2-2-2-----2-2-2-2-----2-2-2-2---------|
E||-------------------------------------0~---|



Chorus:
G||-----------------------------------------------------------------|
D||-----------------------------------------------------------------|
A||--2---2-2---2-2-2---2-2-2---2-2----------------------------------|
E||----------------------------------0---0-0---0-0-0---0-0-0-0-0-0--|


G||-----------------------------------------------------------------|
D||-----------------------------------------------------------------|
A||-----------------------------------------------------------------|
E||--2----2---2---2---2-2-2-2-2-2---3----3---3---3---3-3-3-3-3-3-3--|


G||-----------------------------------------------------------------|
D||-----------------------------------------------------------------|
A||--2---2-2---2-2-2---2-2-2---2-2----------------------------------|
E||----------------------------------3---3-3---3-3-3---3-3-3-3-3-3--|


G||-----------------------------------------------------------------|
D||-----------------------------------------------------------------|
A||-----------------------------------------------------------------|
E||--2----2---2---2---2-2-2-2-2-2---0----0---0---0---0-0-0-0-0-0-0--|



Bridge:
G||---------------------------------------------------------------|
D||---------------------------------------------------------------|
A||--2----2---2---2---2---2---2-2---------------------------------|
E||---------------------------------0----0---0---0---0---0---0-0--|


G||-----------------------------------------------------------------|
D||-----------------------------------------------------------------|
A||-----------------------------------------------------------------|
E||--2----2---2---2---2---2---2-2---3----3---3---3---3---3-3-5-5-5--|


G||---------------------------------------------------------------|
D||---------------------------------------------------------------|
A||--2----2---2---2---2---2---2-2---------------------------------|
E||---------------------------------3----3---3---3---3---3---3-3--|


G||-------------------------------------------------------------------|
D||-------------------------------------------------------------------|
A||-------------------------------------------------------------------|
E||--2---2-2---2-2-2---2-2-2---2-2---0---0-0---0-0---0---0-0-0-0-0-0--|


Interlude:
G||----------------------------------------|----------------------------------------|
D||----------------------------------------|----------------------------------------|
A||----------------------------------------|--10~--------7~--------5-5-5-5-5-5-5-5--|
E||----------------------------------------|----------------------------------------|


Breakdown:
G||------------------------------|------------------------------|
D||------------------------------|------------------------------|
A||--2---2---2---2---2---2-------|--2---2---2---2---2---2-------|
E||--------------------------3~--|--------------------------0~--|


G||------------------------------|------------------------------|
D||--------------------------5~--|------------------------------|
A||--2---2---2---2---2---2-------|--2---2---2---2---2---2-------|
E||------------------------------|--------------------------0~--|



Bridge 2:
G||-------------------------------------------------|
D||-------------------------------------------------|
A||--2---2-2-2-2-2-2-2-2-2---4---4-4-4-4-4-4-4-4-4--|
E||-------------------------------------------------|


G||-------------------------------------------------|
D||--------------------------2---2-2-2-2-2-2-2-2-2--|
A||--5---5-5-5-5-5-5-5-5-5--------------------------|
E||-------------------------------------------------|


G||-------------------------------------------------|
D||--4---4-4-4-4-4-4-4-4-4---5---5-5-5-5-5-5-5-5-5--|
A||-------------------------------------------------|
E||-------------------------------------------------|


G||--2---2-2-2-2-2-2-2-2-2-2-4---4-4-4-4-4-4-4-4\---|
D||-------------------------------------------------|
A||-------------------------------------------------|
E||-------------------------------------------------|



Chorus:
G||---------------------|
D||---------------------|
A||--2~----2--2--2--2\--|
E||---------------------|


G||---------------------------------------------------------------|
D||---------------------------------------------------------------|
A||---------------------------------------------------------------|
E||--2----2---2---2---2---2---2-2---3----3---3---3---3-3-3-3-3-3--|


G||-----------------------------------------------------------------|
D||-----------------------------------------------------------------|
A||--2---2-2---2-2-2---2-2-2---2-2----------------------------------|
E||----------------------------------3---3-3---3-3-3---3-3-3-3-3-3--|


G||-----------------------------------------------------------------|
D||-----------------------------------------------------------------|
A||-----------------------------------------------------------------|
E||--2----2---2---2---2---2---2-2---0----0---0---0---0---0-0-0-0-0--|



Chorus / Outro:
G||-----------------------------------------------------------------|
D||-----------------------------------------------------------------|
A||-----------------------------------------------------------------|
E||--3---3---3---3---3---3---3---3---0---0---0---0---0---0---0---0--|


G||-----------------------------------------------------------------|
D||-----------------------------------------------------------------|
A||--5---5---5---5---5---5---5---5---2---2---2---2---2---2---2---2--|
E||-----------------------------------------------------------------|


G||-----------------------------------------------------------------|
D||-----------------------------------------------------------------|
A||-----------------------------------------------------------------|
E||--3-3-3-3-3-3-3-3-3---3---3---3---0-0-0-0-0-0-0-0-0---0---0---0--|


G||-----------------------------------------------------------------|
D||-----------------------------------------------------------------|
A||--5-5-5-5-5-5-5-5-5---5---5---5---2-2-2-2-2-2-2-2-2---5---4---0--|
E||-----------------------------------------------------------------|



Outro:
G||---------------------|----------------------|
D||---------------------|----------------------|
A||---------------------|---------/10--7--10\--|
E||---------------------|--3--3----------------|


G||--------------------------------------------|
D||--------------------------------------------|
A||--2-2-2-2-----2-2-2-2-----2-2-2-2-----------|
E||--------------------------------------0--0--|


G||--------------------------------------------|
D||--------------------------------------------|
A||--2-2-2-2-----2-2-2-2-----2-2-2-2-----------|
E||--------------------------------------3--3--|


G||------------------------------------|
D||------------------------------------|
A||--2-2-2-5-----7-7-7-10-----7-7-7-7--|
E||------------------------------------|




*****************************
-Tablature 🏷Legend-

h  hammer-on
p  pull-off
b  bend
pb pre-bend
r  release bend
~  hold / vibrato
.  palm mute
/  slide up
\  slide down
*  pinch harmonic
'  natural harmonic
x  mute note
T  tap

Almost there ...

Sign in to get your own page with links to favourite songs and more. You are just one click away...

Login with Facebook Login with Google