GuitarTabsExplorer icon
GuitarTabsExplorer icon

Log in

Songbook

  • Log in to add and see bookmarks

Last visited songs

  • No songs visited yet...
Repetition by Hail Social

Bass tabs

(0:09)
G|--------------------------------|--------------------------------|
D|--------------------------------|--------------2-----------------|
A|----------3---5---5-3-5---5-5-3-|5---5---5-3-------3---2---3-2---|
E|5---5---5-----------------------|------------------------------3-|


(1:13)
G|--------------------------------|--------------------------------|
D|--------------------------------|--------------------------------|
A|----------5-5-------------------|--------3-----3-5-----7\\\------|
E|1-1-1-1-1-----3-3-3-3-3-3-3-3-3-|5-----5-------------------3---3-|

G|--------------------------------|
D|--------------------------------|
A|--------------------------------|
E|3-5-5-------3~------------------|
(1:25)
G|--------------4-----------------|--------------------------------|
D|----7---7-5-------5---7---------|--------------------------------|
A|--------------------------7-7-6-|5-5---5-5-5---------------------|
E|5-------------------------------|--------------3-3-3---3-3-3-3/4/|


(1:41) - Same as (1:13)\
            \
             \
(1:53) - Same as (0:09)  \
              \
              \
(2:09) - Same as (0:09)   \
               \
               /It's Repetition (get it?)
(2:41) - Same as (1:13)   /
              /
              /
(2:53) - Same as (1:25)  /
             /
            /
(3:25) - Same as (1:13)/


(3:37)
G|--------------------------------|--------------------------------|
D|--------------------------------|--------------------------------|
A|--------------------------------|--------------------------------|
E|5---5---5---5---5---5---5---5-54|3---3---3---3---3---3---3---3---|

G|--------------------------------|--------------------------------|
D|--------------------------------|--------------------------------|
A|--------------------------------|----------------5-5-3---5-5-3-5-|
E|1---1---1---1---1---1---1---1-12|3---3---3---3-------------------|


Guitar Solo Arranged for Bass
G|--------5-------5---9-7---5-4-5-|(5)--4-0-4----------------------|
D|----5-7-----5-7---7-------------|-----------2-----0-2-5-2---1////|
A|5-7-----------------------------|--------------------------------|
E|--------------------------------|--------------------------------|

G|9-------------------------------|--------------------------------|
D|--9----------------9------------|--------------------------------|
A|------10-------10------10-101010|10\\8-8---8-8-8-8-8-8//1010-1010|
E|-----------10-------------------|--------------------------------|

G|--------9-----5---------9-7-7-5-|5-4-------4-------4-------------|
D|7---7-7---7-7-----7-7-7---------|----5-------5-------5-----------|
A|--------------------------------|------7-------7-------7-7---6---|
E|--------------------------------|--------------------------------|

G|--------------------------------|--------------------------------|
D|--------------------------------|--------------------------------|
A|--7-----7---------5-----5-------|--3-----3---------2-----2-------|

[ Privacy | About us ]

Welcome to the guitar community

Why join and log in?
- Get songbook with favourite songs
- Get custom made front page
- Submit chords and tabs
- Submit guitar-cover videos
- Get a lot of thumbs up for your work

Songbook

Last visited songs

Site
Home
Search
Community
Submit chords

Video

No video for this page. Check out how you can submit guitar-cover videos here

Search tabs and chords

Browse by artist

A B C D E F G H I J K L M N O P Q R S T U V W X Y Z #


Menu

Search

Video

Bookmark

Login