Log in

One click and you are in

Login with Facebook Login with Google

Why sign up and log in

Guitar Tabs Explorer
Merle Haggard bass tabs for Green green grass of home

Green Green Grass Of Home bass tab by Merle Haggard

Merle Haggard bass tabs for Green green grass of home

Bass tabs

Tuning: EADG

G|------------------------|
D|5-----------------------|
A|------------------------|
E|------------------------|

G|------------------------------------------------------------------------------------------------|
D|5-----------------------5-----------------------------------------------5-----------------------|
A|------------5-----------------------5-----------3-----------------------------------5-----------|
E|------------------------------------------------------------3-----------------------------------|

G|------------------------------------------------------------------------------------------------|
D|5-----------------------5-----------4-----------------------7-----------------------------4-----|
A|------------5-----------------------------7-----5-----------------------5-----------7-----------|
E|------------------------------------------------------------------------------------0-----------|

0:26

G|------------------------------------------------------------------------------------------------|
D|5-----------------------5-----------------------------------------------------------------------|
A|------------5-----------------------5-----------3-----------------------3-----------5-----7-----|
E|------------------------------------------------------------3-----------------------------------|

G|------------------------------------------------------------------------------------------------|
D|5-----------4-----------------------7-----------5-----------------------5-----------------------|
A|------------------7-----5-----------------------------------5-----------------------5-----------|
E|------------------------------------------------------------------------------------------------|

0:48

G|------------------------------------------------------------------------------------------------|
D|5-----------------------5-----------------------------------------------5-----------------------|
A|------------5-----------------------5-----------3-----------------------------------5-----------|
E|------------------------------------------------------------3-----------------------------------|

G|------------------------------------------------------------------------------------------------|
D|5-----------------------5-----------4-----------------------7-----------------------------4-----|
A|------------5-----------------------------7-----5-----------------------5-----------7-----------|
E|------------------------------------------------------------------------------------------------|

1:09

G|------------------------------------------------------------------------------------------------|
D|5-----------------------5-----------------------------------------------------------------------|
A|------------5-----------------------5-----------3-----------------------3-----------5-----7-----|
E|------------------------------------------------------------3-----------------------------------|

G|------------------------------------------------------------------------------------------------|
D|5-----------4-----------------------7-----------5-----------------------5-----------------4-----|
A|------------------7-----5-----------------------------------5-----------------5-----7-----------|
E|------------------------------------------------------------------------------------------------|

1:31

G|------------------------------------------------------------------------------------------------|
D|5-----------4-----------------------------------------------------------------------------------|
A|------------------------7-----------5-----4-----3-----------------------3-----------5-----7-----|
E|------------------------------------------------------------3-----------------------------------|

G|------------------------------------------------------------------------------------------------|
D|5-----------4-----------------------7-----------5-----------------------5-----------------------| x2
A|------------------7-----5-----------------------------------5-----------------------5-----7-----|
E|------------------------------------------------------------------------------------------------|

2:03

G|------------------------------------------------------------------------------------------------|
D|5-----------------------5-----------------------------------------------5-----------------------|
A|------------5-----------------------7-----5-----3-----------------------------------5-----------|
E|------------------------------------------------------------3-----------------------------------|

G|------------------------------------------------------------------------------------------------|
D|5-----------------------5-----------4-----------------------7-----------------------------4-----|
A|------------5-----------------------------7-----5-----------------------5-----------7-----------|
E|------------------------------------------------------------------------------------------------|

2:24

G|------------------------------------------------------------------------------------------------|
D|5-----------------------5-----------------------------------------------------------------------|
A|------------5-----------------------7-----5-----3-----------------------3-----------5-----7-----|
E|------------------------------------------------------------3-----------------------------------|

G|------------------------------------------------------------------------------------------------|
D|5-----------4-----------------------7-----------5-----------------------5-----------------4-----|
A|------------------7-----5-----------------------------------5-----------------5-----7-----------|
E|------------------------------------------------------------------------------------------------|

2:45

G|------------------------------------------------------------------------------------------------|
D|5-----------4-----------------------------------------------------------------------------------|
A|------------------------7-----------5-----4-----3-----------------------3-----------5-----7-----|
E|------------------------------------------------------------3-----------------------------------|

G|------------------------------------------------------------------------------------|
D|5-----------4-----------------------7-----------------------------------------------|
A|------------------7-----5-----------------------------------------------------------|
E|------------------------------------------------------------------------------------|

G|----------------------------------------|
D|10----------9-----------7-----------5---|
A|----------------------------------------|
E|----------------------------------------|

Almost there ...

Sign in to get your own page with links to favourite songs and more. You are just one click away...

Login with Facebook Login with Google