Guitar Tabs Explorer
Merle Haggard bass tabs for Folsom prison blues

Folsom Prison Blues bass tab


Be the first to rate

Folsom Prison Blues bass tab by Merle Haggard

Bass tabs

Print

Tuning: EADG

G|--------------------------------|
D|--------6---------------6-------|
A|4---------------4---------------|
E|--------------------------------|

G|----------------------------------------------------------------|
D|4---------------4---------------4---------------4---------------|
A|--------4---------------4---------------4---------------4-------|
E|----------------------------------------------------------------|

0:07

G|----------------------------------------------------------------|.
D|4---------------4---------------4---------------4---------------|.
A|--------4---------------4---------------4---------------4-------|.
E|----------------------------------------------------------------|.
                                                                   .
G|----------------------------------------------------------------|.
D|4---------------4---------------4---------------4---------------|.
A|--------4---------------4---------------4---------------4-------|.
E|----------------------------------------------------------------|.
                                                                   .
G|----------------------------------------------------------------|.
D|--------4---------------4---------------4---------------4-------|.
A|2---------------2---------------2---------------2---------------|.
E|----------------------------------------------------------------|.
                                                                   . x2
G|----------------------------------------------------------------|.
D|4---------------4---------------4---------------4---------------|.
A|--------4---------------4---------------4---------------4-------|.
E|----------------------------------------------------------------|.
                                                                   .
G|----------------------------------------------------------------|.
D|--------6---------------6---------------6---------------6-------|.
A|4---------------4---------------4---------------4---------------|.
E|----------------------------------------------------------------|.
                                                                   .
G|----------------------------------------------------------------|.
D|4---------------4---------------4---------------4---------------|.
A|--------4---------------4---------------4---------------4-------|.
E|----------------------------------------------------------------|.

0:59

G|----------------------------------------------------------------|
D|4---------------4---------------4---------------4---------------|
A|--------4---------------4---------------4---------------4-------|
E|----------------------------------------------------------------|

G|----------------------------------------------------------------|
D|4---------------4---------------4---------------4---2---1-------|
A|--------4---------------4---------------4-------------------4---|
E|----------------------------------------------------------------|

G|----------------------------------------------------------------|
D|--------4---------------4---------------4---------------4-------|
A|2---------------2---------------2---------------2---------------|
E|----------------------------------------------------------------|

G|----------------------------------------------------------------|
D|4---------------4---------------4---------------4-----------4---|
A|--------4---------------4---------------4---------------4-------|
E|----------------------------------------------------------------|

G|----------------------------------------------------------------|
D|--------6---------------6---------------6---------------6-------|
A|4---------------4---------------4---------------4---------------|
E|----------------------------------------------------------------|

G|----------------------------------------------------------------|
D|4---------------4---------------4---------------4---------------|
A|--------4---------------4---------------4---------------4-------|
E|----------------------------------------------------------------|

1:24

G|----------------------------------------------------------------|
D|4---------------4---------------4---------------4---------------| x2
A|--------4---------------4---------------4---------------4-------|
E|----------------------------------------------------------------|

G|----------------------------------------------------------------|
D|--------4---------------4---------------4---------------4-------|
A|2---------------2---------------2---------------2---------------|
E|----------------------------------------------------------------|

G|----------------------------------------------------------------|
D|4---------------4---------------4---------------4---------------|
A|--------4---------------4---------------4---------------4-------|
E|----------------------------------------------------------------|

G|----------------------------------------------------------------|
D|--------6---------------6---------------6---------------6-------|
A|4---------------4---------------4---------------4---------------|
E|----------------------------------------------------------------|

G|----------------------------------------------------------------|
D|4---------------4---------------4---------------4---------------|
A|--------4---------------4---------------4---------------4-------|
E|----------------------------------------------------------------|

1:49

G|----------------------------------------------------------------|
D|4---------------4---------------4---------------4---------------|
A|--------4---------------4---------------4---------------4-------|
E|----------------------------------------------------------------|

G|----------------------------------------------------------------|
D|4---------------4---------------4---------------4---2---1-------|
A|--------4---------------4---------------4-------------------4---|
E|----------------------------------------------------------------|

G|----------------------------------------------------------------|
D|--------4-----4---------4-----4---------4-----4---------4-------|
A|2---------------2---------------2---------------2-----------2---|
E|----------------------------------------------------------------|

G|----------------------------------------------------------------|
D|4-----4---------4-----4---------4-----4---------4-----4-----4---|
A|--------4---------------4---------------4---------------4-------|
E|----------------------------------------------------------------|

G|----------------------------------------------------------------|
D|--------6-----6---------6---------------6-----6---------6-------|
A|4---------------4---------------4---------------4---------------|
E|----------------------------------------------------------------|

G|----------------------------------------------------------------|
D|4---------------4---------------4---------------4---------------|
A|--------4---------------4---------------4---------------4---6---|
E|----------------------------------------------------------------|

2:14

G|----------------------------------------------------------------|
D|4---------------4---------------4---------------4---------------| x2
A|--------4---------------4---------------4---------------4-------|
E|----------------------------------------------------------------|

G|----------------------------------------------------------------|
D|--------4---------------4---------------4---------------4-------|
A|2---------------2---------------2---------------2---------------|
E|----------------------------------------------------------------|

G|----------------------------------------------------------------|
D|4---------------4---------------4---------------4---------------|
A|--------4---------------4---------------4---------------4-------|
E|----------------------------------------------------------------|

G|----------------------------------------------------------------|
D|--------6---------------6---------------6---------------6-------|
A|4---------------4---------------4---------------4---------------|
E|----------------------------------------------------------------|

G|----------------------------------------------------------------|
D|4---------------4---------------4---------------4-----------4---|
A|--------4---------------4---------------4---------------4-------|
E|----------------------------------------------------------------|

G|------------------------------------|
D|--------6---------------6-------4---|
A|4---------------4-------------------|
E|------------------------------------|

Comment this song and these bass tabs

Do you have corrections, comments on the bass tabs, thoughts about the song or a message to the author? Write them below.