Log in

One click and you are in

Login with Facebook Login with Google

Why sign up and log in

Guitar Tabs Explorer
Merle Haggard bass tabs for Ever-changing woman

Ever-changing Woman bass tab by Merle Haggard

Merle Haggard bass tabs for Ever-changing woman

Bass tabs

Tuning: EADG

G|------------------------------7---------------------------------|
D|--------------------------------0-------------------------------|
A|5---------------------------------------------------------------|
E|----------------------------------------------------------------|

G|------------------------------7-|
D|--------------------------------|
A|5-------------------------------|
E|--------------------------------|

0:09

G|----------------------------------------------7-----------------|
D|0---------------7-------------------------------0---------------|
A|--------------------------------5-------------------------------|
E|----------------------------------------------------------------|

G|----------------------------------------------7-----------------|
D|5---------------7-------------------------------0---------------| x3
A|--------------------------------5-------------------------------|
E|----------------------------------------------------------------|

0:30

G|----------------------------------------------------------------|
D|5-----------5---7-----------------------------------------------|
A|------------------------7-------5-----------5---5---------------|
E|----------------------------------------------------------------|

G|----------------------------------------------------------------|
D|5-----------5---5-------5-------7---------------7---------------|
A|----------------------------------------7-7-7-------------------|
E|----------------------------------------------------------------|

G|----------------------------------------------------------------|
D|5-----------5---7-----------------------------------------------|
A|------------------------7-------5-----------5---5---------------|
E|----------------------------------------------------------------|

G|----------------------------------------------7-----------------|
D|5-----------5---7-------------------------------0---------------|
A|--------------------------------5-------------------------------|
E|----------------------------------------------------------------|

G|--------------7-------------------------------7-----------------|
D|----------------0-------------------------------0---------------|
A|5-------------------------------5-------------------------------|
E|----------------------------------------------------------------|

0:57

G|----------------------------------------------7-----------------|
D|----------------7-------------------------------0---------------|
A|5-------------------------------5-------------------------------|
E|----------------------------------------------------------------|

G|----------------------------------------------7-----------------|
D|5---------------7-------------------------------0---------------| x3
A|--------------------------------5-------------------------------|
E|----------------------------------------------------------------|

1:20

G|----------------------------------------------------------------|
D|5-----------5---7-----------------------------------------------|
A|------------------------7-------5-----------5---5---------------|
E|----------------------------------------------------------------|

G|----------------------------------------------------------------|
D|5-----------5---5-------5-------7---------------7---------------|
A|--------------------5-----------------------7-------------------|
E|----------------------------------------------------------------|

G|----------------------------------------------------------------|
D|5-----------5---7-----------------------------------------------|
A|------------------------7-------5-----------5---5---------------|
E|----------------------------------------------------------------|

G|----------------------------------------------7-----------------|
D|5-----------5---7-------------------------------0---------------|
A|--------------------------------5-------------------------------|
E|----------------------------------------------------------------|

1:41

G|----------------------------------------------------------------|
D|5-----------5---7-----------------------------------------------|
A|------------------------7-------5-----------5---5---------------|
E|----------------------------------------------------------------|

G|----------------------------------------------------------------|
D|5---------------5-----------5---7---------------7---------------|
A|------------5-------------------------------7-------------------|
E|----------------------------------------------------------------|

G|----------------------------------------------------------------|
D|5-----------5---7-----------------------------------------------|
A|------------------------7-------5-----------5---5---------------|
E|----------------------------------------------------------------|

G|----------------------------------------------7-----------------|
D|5-----------5---7-----------5-------------------0---------------|
A|--------------------------------5-------------------------------|
E|----------------------------------------------------------------|

G|----------------------------------------------7-----------------|
D|5-----------5---7-------------------------------0---------------|
A|------------------------7-------5-------------------------------|
E|----------------------------------------------------------------|

G|--------------------------------|
D|------------5---7---------------|
A|5-----------------------7-------|
E|--------------------------------|

G|--------------7-------------------------------7-----------------|
D|----------------0-------------------------------0---------------| x2
A|5-------------------------------5-------------------------------|
E|----------------------------------------------------------------|

G|--------------------------------|
D|--------------------------------|
A|5-------------------------------|

Almost there ...

Sign in to get your own page with links to favourite songs and more. You are just one click away...

Login with Facebook Login with Google