Log in

One click and you are in

Login with Facebook Login with Google

Why sign up and log in

Guitar Tabs Explorer
Nina Hagen bass tabs for Smack jack

Bass tabs

Nina Hagen – Smack jack

Cronos – Février 2017

0:00 Intro            0:22
G|-----------------------|    G|-----------------------------|
D|-----------------------| X7  D|-----------------------------|
A|------------0-2--------|    A|------------0-2--3----5-3-5--|
E|--0-0--0-3--------0-0--|    E|--0-0--0-3-------------------|

                 1:05
G|-----------------------|    G|-------------------|
D|-----------------------| X18 D|--2-2-2-5-4-2-0-2--|
A|------------0-2--------|    A|-------------------|
E|--0-0--0-3--------0-0--|    E|-------------------|

1:10 Refrain
G|-----------------------------------|
D|------2-------2--------------------| X3
A|--0-3---3-0-3---3----------3-------|
E|----------------------1---------1--|

1:29               1:45
G|-----------------------|    G|-----------------------------|
D|-----------------------| X7  D|-----------------------------|
A|------------0-2--------|    A|------------0-2--3----5-3-5--|
E|--0-0--0-3--------0-0--|    E|--0-0--0-3-------------------|

                 2:33
G|-----------------------|    G|-------------------|
D|-----------------------| X21 D|--2-2-2-5-4-2-0-2--|
A|------------0-2--------|    A|-------------------|
E|--0-0--0-3--------0-0--|    E|-------------------|

2:38 Refrain                2:57
G|-----------------------------------|   G|-----------------------|
D|------2-------2--------------------| X3  D|-----------------------| X7
A|--0-3---3-0-3---3----------3-------|   A|------------0-2--------|
E|----------------------1---------1--|   E|--0-0--0-3--------0-0--|

3:14                 3:18
G|-----------------------------|   G|-----------------------|
D|-----------------------------|   D|-----------------------| X16
A|------------0-2--3----5-3-5--|   A|------------0-2--------|
E|--0-0--0-3-------------------|   E|--0-0--0-3--------0-0--|

3:50            3:56 Refrain
G|-------------------|   G|-----------------------------------|
D|--2-2-2-5-4-2-0-2--|   D|------2-------2--------------------| X Jusqu’à la fin
A|-------------------|   A|--0-3---3-0-3---3----------3-------|
E|-------------------|   E|----------------------1---------1--|

Almost there ...

Sign in to get your own page with links to favourite songs and more. You are just one click away...

Login with Facebook Login with Google