Log in

One click and you are in

Login with Facebook Login with Google

Why sign up and log in

Guitar Tabs Explorer
Nina Hagen bass tabs for African reggae

Bass tabs

0:10 Intro:
G|--0-2------------------------------------------------------------|
D|------2-0--------------------------------------------------------|
A|----------2---0------0------2------2------0------0-----2------2--|
E|------------3----0-3----0-3----0-3----0-3----0-3---0-3----0-3----|

G|---------------------------------------------------------------|
D|---------------------------------------------------------------|
A|------0------0------2------2------0------0-----2-----2--14-15--|
E|--0-3----0-3----0-3----0-3----0-3----0-3---0-3---0-3-----------|

0:33 Verse:
G|---------------------------------------------------------------------|
D|------------------------------0-2--5--------------------------14-12--|
A|------0------0------2------2-----------0------0------2-----2---------|
E|--0-3----0-3----0-3----0-3-----------3----0-3----0-3---0-3-----------|

G|------------------------------|   G|-------0---|
D|------------------------------| X4 D|----0------|
A|------0------0------2------2--|   A|--2-----2--|
E|--0-3----0-3----0-3----0-3----|   E|-----------|

G|---------------------------------------------|
D|---------------------------------------10----|
A|------0------0------2---------10-12------12--|
E|--0-3----0-3----0-3----10H12-----------------|

G|--------------------------------6-5--|
D|-------------------------------------|
A|------0------0------2------2---------|
E|--0-3----0-3----0-3-----0-3----------|

G|----------------------------------0-0----|
D|------------------------------0H2-----2--|
A|------0------0------2------2-------------|
E|--0-3----0-3----0-3----0-3---------------|

G|--------------------------------------------|
D|--------------------------------------------|
A|------0------0------2------2------0------0--|
E|--0-3----0-3----0-3----0-3----0-3----0-3----|

G|--------------------------|
D|-----------2--------------|
A|--0H2--0H2---0H2-2----2---|
E|--------------------------|

1:41 Refrain:
G|------------------------------|   G|-------|
D|------------------------------| X3 D|-------|
A|------0------0------2------2--|   A|--12\--|
E|--0-3----0-3----0-3----0-3----|   E|-------|

G|-------------------------------------|
D|-------------------------------------|
A|------0------0------2------2--10-12--|
E|--0-3----0-3----0-3----0-3-----------|

G|------------------------------|   G|------|
D|------------------------------| X3 D|------|
A|------0------0------2------2--|   A|--2\--|
E|--0-3----0-3----0-3----0-3----|   E|------|

G|--------------------------------------------------------|
D|--------------------------------------------------------|
A|------0------0------2------2------0------0------2--2-2--|
E|--0-3----0-3----0-3----0-3----0-3----0-3----0-3---------|

G|------------------------------|
D|------------------------------|
A|------0------0------2------2--|
E|--0-3----0-3----0-3----0-3----|

G|------------------------------|   G|------|
D|------------------------------| X2 D|------|
A|------0------0------2------2--|   A|--2\--|
E|--0-3----0-3----0-3----0-3----|   E|------|

G|------------------------------|   G|------|
D|------------------------------| X2 D|------|
A|------0------0------2------2--|   A|--2\--|
E|--0-3----0-3----0-3----0-3----|   E|------|

G|------------------------------|   G|--------------------------|
D|------------------------------| X3 D|------0------0------------|
A|------0------0------2------2--|   A|--0-3----0-3--------2--2--|
E|--0-3----0-3----0-3----0-3----|   E|----------------0-3-------|

3:16 Refrain:
G|------------------------------|   G|------|
D|------------------------------|   D|------|
A|------0------0------2------2--|   A|--2\--|
E|--0-3----0-3----0-3----0-3----|   E|------|

G|------------------------------|
D|------------------------------| X5
A|------0------0------2------2--|
E|--0-3----0-3----0-3----0-3----|

3:50
G|-------------------------------------------------|
D|----2-2----------------------0-0-----------------| X5
A|--0-----0-0--0---0----------------------------0--|
E|---------------3---0-3----3------3-3--3-0-3-0----|

G|-----------------------------------------------------|
D|----2-2--------------------------0-------------------|
A|--0-----0-0-0-0—0—0----------0-0---2-0-0-0----0------|
E|---------------------3-0-3------------------3---0-3--|

G|----------------------------------------------------|
D|----2-2-----------------------0-0-------------------|
A|--0-----0-0—0-0---0------------------------------0--|
E|----------------3---0-3----3------3-3--3-3-0-3-0----|

G|-------------------------------|
D|----2-2------------------------|
A|--0-----0-0—--0---0------------|
E|----------------3---3-0-3-3-3--|

4:36
G|--------------------------------------------|
D|--2-2--------------------0-0----------------|
A|------0-0--0-----0-----0-----0-0------------|
E|---------------3---0-3-----------3-3---3-3--|

G|---------------------------------------------------------------|
D|-------------2-2-------------------------0---------------------|
A|--0-0-0-0-0------0-0--0---0-0---------------------0---0-0------|
E|------------------------3-----0-3-3-3-3----3-3-3----3-----3-3--|

G|-------------------------------------------------------------|
D|----2-2----------------------------0-0-----------------------|
A|--0-----0-0—0--0-0---0-0----------------0-0--0--0---0---0—0--|
E|-------------------3-----0-3-3-3-3----------------3---3------|

G|------------------------------------------------------|
D|------2-2-----------------------0-0------------0-0----|
A|--0-0-----0-0-0--—0—-0-------0------0-0-0-0-0------0—-|
E|-----------------------3-0-3--------------------------|

G|------------------------------------------------------|
D|-----2-2------------------------------0-0-------------|
A|--0------0-0-0-0—0-0--—0----------—------------0-0----|
E|---------------------3---0-3-3-3-3--------3-3------0--|

G|------------------------------------------------|
D|-----------2-2---------------------0-0----------|
A|--0-0-0-0------0-0--0-0---0---------------------|
E|------------------------0---0-3--3-----3-3-3-3--|

G|--------------------------------------------|
D|-----------2-2--------------------0-0-------|
A|--0-0-0-0------0-0-0-0---0------------------|
E|-----------------------0---0-3-3-3-----3-3--|

G|---------------------------------------------------|
D|------2-2-2----------------------0-0--------2-2----|
A|--0-0--------0-0-0-0----0--------------------------|
E|----------------------0---0-3-3-3----3-3--------3--|

G|-----------------------------------------------------|
D|--------------2-----------------------0-0------------|
A|--------0--0----0-0-0-0-0----0-----------------------|
E|--3-3-3--------------------3---0-3--3-----3-3-3-3-3--|

G|--------------------------------------------------------|
D|---------------2-2-------------------0-0----------------|
A|---------0-0-0-----0-0----0-----------------------------|
E|--3-3-3-----------------3---0-3--3-3------3-3-3-3-3--3--|

5:35
G|------------------------------------------------------------|
D|----------------0-0-------------------2---------------------|
A|--0---0--------------------0--------0---0-0-0---0----0------|
E|----3---0-3-3-------3-3--3---3-0-3------------3----3---0-3--|

G|-----------------------------------------------------------------|
D|----0-0-----------------------2-2-----------------------0-0------|
A|---------------------0------0-----0---0---0----0--------------0--|
E|--3-----3-0-3-0-3--3---0-3----------3--------3---0-3--3-----3----|

G|-----------------------------------------------------------------|
D|---------------------2-----------------------0-0-----------------|
A|--0--0------0-0-0-0----0-0-0--0-0---0-------------------------0--|
E|----3---0-3-----------------------3---0-3--3------3-3--3-3—0-----|

G|------------------------------------------------------|
D|-------2-2---------------------0-0--------------------|
A|--0-0------0-0--0---0------------------------------0--|
E|------------------3---0-3----3-----3-3--3-3-3--3-3----|

G|------------------------------------------------------------------|
D|-----2-2---------------------0-0---------------------2-2----------|
A|--0------0-0--0---0-------------------------0----0-0-----0-0-0-0--|
E|----------------3---0-3----3-----3-3-3--0-3---3-------------------|

G|------------------------------------------------------------------------|
D|---------------0-0--------------------------2-2-------------------------|
A|----0--------------0-0-0-0-0----0------0-0-----0-0-0-0-0--0-2---2--2—2--|
E|--3---0-3--3-3----------------3---0-3--------------------------3--------|

************************************

| \ Slide down
| H Hammer

Almost there ...

Sign in to get your own page with links to favourite songs and more. You are just one click away...

Login with Facebook Login with Google