Log in

One click and you are in

Login with Facebook Login with Google

Why sign up and log in

Guitar Tabs Explorer
Sammy Hagar guitar tabs for Hands and knees

Guitar tabs with lyrics

Tuning: Standard (E A D G B E)


Guitar 1

     H        A chord diagramE MajorE  A chord diagramE MajorE   A chord diagramE MajorE   A chord diagramE MajorE     H        A chord diagramE MajorE  A chord diagramE MajorE    A chord diagramE MajorE  A chord diagramE MajorE
E||-------------------------|-------------------------|
B||-------------------------|-------------------------|
G||--------------4s--7s--9--|--L-----------9s--11--4--|
D||-------------------------|-------------------------|
A||--------------2s--5s--7--|--L-----------7s---9--2--|
E||-------------------------|-------------------------|


  H        A chord diagramE MajorE  A chord diagramE MajorE   A chord diagramE MajorE   A chord diagramE MajorE     Q.       A chord diagramE MajorE   A chord diagramE MajorE  A chord diagramE MajorE  A chord diagramE MajorE  A chord diagramE MajorE
-------------------------|---------------------------|
-------------------------|---------------------------|
--L-----------4s--7s--9--|--L------/12--11--9--7--9--|
-------------------------|---------------------------|
--L-----------2s--5s--7--|--L------/10---9--7--5--7--|
-------------------------|---------------------------|


  Q    Q    A chord diagramE MajorE  A chord diagramE MajorE   A chord diagramE MajorE   A chord diagramE MajorE     H        A chord diagramE MajorE  A chord diagramE MajorE    A chord diagramE MajorE  A chord diagramE MajorE     H        A chord diagramE MajorE  A chord diagramE MajorE   A chord diagramE MajorE   A chord diagramE MajorE
--------------------------|-------------------------|-------------------------|
--------------------------|-------------------------|-------------------------|
--7------------4s--7s--9--|--L-----------9s--11--4--|--L-----------4s--7s--9--|
--------------------------|-------------------------|-------------------------|
--5------------2s--5s--7--|--L-----------7s---9--2--|--L-----------2s--5s--7--|
--------------------------|-------------------------|-------------------------|


                                                   Verse:

  Q.       A chord diagramE MajorE   A chord diagramE MajorE  A chord diagramE MajorE  A chord diagramE MajorE  A chord diagramE MajorE     Q    A chord diagramE MajorE  A chord diagramE MajorE  H             A chord diagramE MajorE  A chord diagramE MajorE  A chord diagramE MajorE  A chord diagramE MajorE  H
---------------------------|----------------------||---------0--------------|
---------------------------|----------------------||------0-----------------|
--L------/12--11--9--7--9--|--7-------7--L--------||*-----------4--L--------|
---------------------------|----------7--L--------||*-----------------------|
--L------/10---9--7--5--7--|--5-------5--L--------||------------------------|
---------------------------|----------------------||---0--------------------|

                          |-3-|
  A chord diagramE MajorE  A chord diagramE MajorE  A chord diagramE MajorE  A chord diagramE MajorE  H           T T T S A chord diagramE MajorE  A chord diagramE MajorE  A chord diagramE MajorE  A chord diagramE MajorE  Q.
-----------------------|----------------------3------|
-----------3--L--------|--------5-------0--L---------|
-----------------------|------x------4---------------|
--------4--------------|----x------------------------|
-----2-----------------|--x--------------------------|
-----------------------|----------0------------------|


  A chord diagramE MajorE  A chord diagramE MajorE  A chord diagramE MajorE  A chord diagramE MajorE  A chord diagramE MajorE  A chord diagramE MajorE  A chord diagramE MajorE  A chord diagramE MajorE     A chord diagramE MajorE  A chord diagramE MajorE  A chord diagramE MajorE  A chord diagramE MajorE  H           A chord diagramE MajorE  A chord diagramE MajorE  A chord diagramE MajorE  A chord diagramE MajorE  H
--------------------------|--------0--------------|-----------------------|
-----------3--L-----------|-----0-----------------|-----------------------|
-----------2--L--4--2--4--|-----------4--L--------|-----------4--L--------|
--------4--0--L--4--2--4--|-----------------------|--------4--------------|
--x--2-----------2--0--2--|-----------------------|-----2-----------------|
--------------------------|--0--------------------|-----------------------|


  |-3-|
  T T T S A chord diagramE MajorE  A chord diagramE MajorE  A chord diagramE MajorE  A chord diagramE MajorE  Q.        A chord diagramE MajorE  A chord diagramE MajorE  A chord diagramE MajorE  A chord diagramE MajorE  Q    A chord diagramE MajorE   A chord diagramE MajorE
----------------------3------|--------------------------|
--------x-------0--L---------|-----------3--L-----------|
------x------4---------------|-----------2--L-----------|
----x------------------------|--------4--0--L-----------|
--x--------------------------|--x--2-------------9\--3--|
----------0------------------|--------------------------|


Pre Chorus:

  A chord diagramE MajorE  A chord diagramE MajorE  A chord diagramE MajorE  A chord diagramE MajorE  A chord diagramE MajorE  A chord diagramE MajorE  A chord diagramE MajorE  A chord diagramE MajorE     A chord diagramE MajorE  A chord diagramE MajorE  A chord diagramE MajorE  A chord diagramE MajorE  A chord diagramE MajorE  A chord diagramE MajorE  A chord diagramE MajorE  A chord diagramE MajorE
--------------------0-----|--------------------0-----|
--------------3--L--------|--------------3--L--------|
--------5-----------------|--------5-----------------|
--------------------------|--------------------------|
--L--3-----3-----------3--|--L--3-----3-----------5--|
--------------------------|--------------------------|


  A chord diagramE MajorE  A chord diagramE MajorE  A chord diagramE MajorE  A chord diagramE MajorE  Q    A chord diagramE MajorE   A chord diagramE MajorE      A chord diagramE MajorE  A chord diagramE MajorE   A chord diagramE MajorE   A chord diagramE MajorE   A chord diagramE MajorE    A chord diagramE MajorE   A chord diagramE MajorE    A chord diagramE MajorE
---------------------------|----------------------------------|
---------------------------|----------------------------------|
--------7-----7----9--12\--|--L-------------------------------|
---------------------------|-----9--12s--9--14s--12--17s--16--|
--L--5-----5---------------|----------------------------------|
---------------------------|-----7--10s--7--12s--10--15s--14--|


Chorus:

  Q    A chord diagramE MajorE  A chord diagramE MajorE  A chord diagramE MajorE  E.  S A chord diagramE MajorE     Q     A chord diagramE MajorE  A chord diagramE MajorE  A chord diagramE MajorE  A chord diagramE MajorE  A chord diagramE MajorE  A chord diagramE MajorE
-------------------------|--------------------------|
-------------------------|--------------------------|
-------------7--L-----9--|--L~----------7--9-----5--|
----------x--7--L-----9--|--L~-------x--7--9-----5--|
--2----------------------|-----------------------3--|
--0----------------------|--------------------------|


  Q.       A chord diagramE MajorE   A chord diagramE MajorE  A chord diagramE MajorE  A chord diagramE MajorE  A chord diagramE MajorE     Q.     A chord diagramE MajorE  A chord diagramE MajorE   A chord diagramE MajorE    A chord diagramE MajorE    A chord diagramE MajorE
---------------------------|-----------------------------|
---------------------------|-----------------------------|
--L------/12--11--9--7--7--|--L------x--4s--7--/12s--11--|
--L------------------------|---------x-------------------|
--L------/10---9--7--5--5--|--L---------2s--5--/10s---9--|
---------------------------|-----------------------------|


  Q    A chord diagramE MajorE  A chord diagramE MajorE  A chord diagramE MajorE  E.  S A chord diagramE MajorE     Q     A chord diagramE MajorE  A chord diagramE MajorE  A chord diagramE MajorE  A chord diagramE MajorE  A chord diagramE MajorE  A chord diagramE MajorE
-------------------------|--------------------------|
-------------------------|--------------------------|
-------------7--L-----9--|--L~----------7--9-----5--|
----------x--7--L-----9--|--L~-------x--7--9-----5--|
--2----------------------|-----------------------3--|
--0----------------------|--------------------------|


  Q.       A chord diagramE MajorE   A chord diagramE MajorE  A chord diagramE MajorE  A chord diagramE MajorE  A chord diagramE MajorE     Q     Q.     A chord diagramE MajorE   A chord diagramE MajorE   A chord diagramE MajorE
---------------------------|--------------------------|
---------------------------|--------------------------|
--L------/12--11--9--7--7--|--L\-----------4s--7s--9--|
--L------------------------|--------------------------|
--L------/10---9--7--5--5--|--L\-----------2s--5s--7--|
---------------------------|--------------------------|


  H        A chord diagramE MajorE  A chord diagramE MajorE    A chord diagramE MajorE  A chord diagramE MajorE     H        A chord diagramE MajorE  A chord diagramE MajorE   A chord diagramE MajorE   A chord diagramE MajorE     Q.       A chord diagramE MajorE   A chord diagramE MajorE  A chord diagramE MajorE  A chord diagramE MajorE  A chord diagramE MajorE
-------------------------|-------------------------|---------------------------|
-------------------------|-------------------------|---------------------------|
--L-----------9s--11--4--|--L-----------4s--7s--9--|--L------/12--11--9--7--9--|
-------------------------|-------------------------|---------------------------|
--L-----------7s---9--2--|--L-----------2s--5s--7--|--L------/10---9--7--5--7--|
-------------------------|-------------------------|---------------------------|


                        Bridge:

                              PM PM    PM PM    PM PM    PM PM
  Q    A chord diagramE MajorE  A chord diagramE MajorE  H             A chord diagramE MajorE  S  S  A chord diagramE MajorE  S  S  A chord diagramE MajorE  S  S  A chord diagramE MajorE  S  S
-----------------------||--------------------------------------|
-----------------------||--------------------------------------|
--7-------7--L--------*||--------------------------------------|
----------7--L--------*||--------------------------------------|
--5-------5--L---------||--------------------------------------|
-----------------------||--0--0--0--0--0--0--0--0--0--0--0--0--|


     PM PM    PM PM    PM PM    PM PM       PM PM    PM PM    PM PM    PM PM
  A chord diagramE MajorE  S  S  A chord diagramE MajorE  S  S  A chord diagramE MajorE  S  S  A chord diagramE MajorE  S  S     A chord diagramE MajorE  S  S  A chord diagramE MajorE  S  S  A chord diagramE MajorE  S  S  A chord diagramE MajorE  S  S
--------------------------------------|--------------------------------------|
--------------------------------------|--------------------------------------|
--------------------------------------|--------------------------------------|
--------------------------------------|--------------------------------------|
--------------------------------------|--------------------------------------|
--0--0--0--0--0--0--0--0--0--0--0--0--|--0--0--0--0--0--0--0--0--0--0--0--0--|


                                   Solo:

     PM PM    PM PM    PM PM             PM    PM PM    PM PM
  A chord diagramE MajorE  S  S  A chord diagramE MajorE  S  S  A chord diagramE MajorE  S  S  A chord diagramE MajorE  A chord diagramE MajorE     A chord diagramE MajorE  A chord diagramE MajorE  A chord diagramE MajorE  S  S  A chord diagramE MajorE  S  S  A chord diagramE MajorE  A chord diagramE MajorE
-----------------------------------|---------------------------------|
-----------------------------------|---------------------------------|
-----------------------------------|-----------------------------7~--|
-----------------------------------|-----------------------------7~--|
--------------------------------2--|--L------------------------------|
--0--0--0--0--0--0--0--0--0--0--0--|--L--0--0--0--0--0--0--0--0------|


     PM    PM PM    PM PM              PM    PM PM    PM PM
  A chord diagramE MajorE  A chord diagramE MajorE  A chord diagramE MajorE  S  S  A chord diagramE MajorE  S  S  A chord diagramE MajorE  A chord diagramE MajorE      A chord diagramE MajorE  A chord diagramE MajorE  A chord diagramE MajorE  S  S  A chord diagramE MajorE  S  S  A chord diagramE MajorE  A chord diagramE MajorE
---------------------------------|---------------------------------|
---------------------------------|---------------------------------|
--L--------------------------5~--|--L--------------------------7~--|
--L--------------------------5~--|--L--------------------------7~--|
---------------------------------|---------------------------------|
-----0--0--0--0--0--0--0--0------|-----0--0--0--0--0--0--0--0------|


     PM    PM PM    PM PM              PM    PM PM    PM PM
  A chord diagramE MajorE  A chord diagramE MajorE  A chord diagramE MajorE  S  S  A chord diagramE MajorE  S  S  A chord diagramE MajorE  A chord diagramE MajorE      A chord diagramE MajorE  A chord diagramE MajorE  A chord diagramE MajorE  S  S  A chord diagramE MajorE  S  S  A chord diagramE MajorE  A chord diagramE MajorE
---------------------------------|---------------------------------|
---------------------------------|---------------------------------|
--L--------------------------9~--|--L--------------------------7~--|
--L--------------------------9~--|--L--------------------------7~--|
-----------------------------7---|--L------------------------------|
-----0--0--0--0--0--0--0--0------|-----0--0--0--0--0--0--0--0------|


     PM    PM PM    PM PM              PM    PM PM    PM PM
  A chord diagramE MajorE  A chord diagramE MajorE  A chord diagramE MajorE  S  S  A chord diagramE MajorE  S  S  A chord diagramE MajorE  A chord diagramE MajorE      A chord diagramE MajorE  A chord diagramE MajorE  A chord diagramE MajorE  S  S  A chord diagramE MajorE  S  S  A chord diagramE MajorE  A chord diagramE MajorE
---------------------------------|---------------------------------|
---------------------------------|---------------------------------|
--L--------------------------5~--|--L--------------------------7~--|
--L--------------------------5~--|--L--------------------------7~--|
---------------------------------|---------------------------------|
-----0--0--0--0--0--0--0--0------|-----0--0--0--0--0--0--0--0------|


     PM    PM PM    PM PM              PM    PM PM    PM PM
  A chord diagramE MajorE  A chord diagramE MajorE  A chord diagramE MajorE  S  S  A chord diagramE MajorE  S  S  A chord diagramE MajorE  A chord diagramE MajorE      A chord diagramE MajorE  A chord diagramE MajorE  A chord diagramE MajorE  S  S  A chord diagramE MajorE  S  S  A chord diagramE MajorE  A chord diagramE MajorE
---------------------------------|---------------------------------|
---------------------------------|---------------------------------|
--L--------------------------9~--|--L--------------------------7~--|
--L--------------------------9~--|--L--------------------------7~--|
-----------------------------7---|--L------------------------------|
-----0--0--0--0--0--0--0--0------|-----0--0--0--0--0--0--0--0------|


     PM    PM PM    PM PM              PM    PM PM    PM PM
  A chord diagramE MajorE  A chord diagramE MajorE  A chord diagramE MajorE  S  S  A chord diagramE MajorE  S  S  A chord diagramE MajorE  A chord diagramE MajorE      A chord diagramE MajorE  A chord diagramE MajorE  A chord diagramE MajorE  S  S  A chord diagramE MajorE  S  S  A chord diagramE MajorE  A chord diagramE MajorE
---------------------------------|---------------------------------|
---------------------------------|---------------------------------|
--L--------------------------5~--|--L--------------------------7~--|
--L--------------------------5~--|--L--------------------------7~--|
---------------------------------|---------------------------------|
-----0--0--0--0--0--0--0--0------|-----0--0--0--0--0--0--0--0------|


     PM    PM PM    PM PM              PM    PM PM    PM PM
  A chord diagramE MajorE  A chord diagramE MajorE  A chord diagramE MajorE  S  S  A chord diagramE MajorE  S  S  A chord diagramE MajorE  A chord diagramE MajorE      A chord diagramE MajorE  A chord diagramE MajorE  A chord diagramE MajorE  S  S  A chord diagramE MajorE  S  S  A chord diagramE MajorE  A chord diagramE MajorE
---------------------------------|---------------------------------|
---------------------------------|---------------------------------|
--L--------------------------9~--|--L--------------------------7~--|
--L--------------------------9~--|--L--------------------------7~--|
-----------------------------7---|--L------------------------------|
-----0--0--0--0--0--0--0--0------|-----0--0--0--0--0--0--0--0------|


     PM    PM PM    PM PM              PM    PM PM    PM PM
  A chord diagramE MajorE  A chord diagramE MajorE  A chord diagramE MajorE  S  S  A chord diagramE MajorE  S  S  A chord diagramE MajorE  A chord diagramE MajorE      A chord diagramE MajorE  A chord diagramE MajorE  A chord diagramE MajorE  S  S  A chord diagramE MajorE  S  S  A chord diagramE MajorE  A chord diagramE MajorE
---------------------------------|---------------------------------|
---------------------------------|---------------------------------|
--L--------------------------5~--|--L--------------------------7~--|
--L--------------------------5~--|--L--------------------------7~--|
---------------------------------|---------------------------------|
-----0--0--0--0--0--0--0--0------|-----0--0--0--0--0--0--0--0------|


                           Pre Chorus:

  PM PM PM PM PM PM PM PM
  A chord diagramE MajorE  A chord diagramE MajorE  A chord diagramE MajorE  A chord diagramE MajorE  A chord diagramE MajorE  A chord diagramE MajorE  A chord diagramE MajorE  A chord diagramE MajorE
--------------------------|-----|-----|-----|-----||
--------------------------|-----|-----|-----|-----||
--------------------------|-----|-----|-----|-----||
--------------------------|-----|-----|-----|-----||
--------------------------|-----|-----|-----|-----||
--0--0--0--0--0--0--0--0--|-----|-----|-----|-----||




Guitar (guitar solo, perhaps coming soon)



Duration Legend
---------------
W - whole
H - half
Q - quarter
A chord diagramE MajorE - 8th
S - 16th
T - 32nd
X - 64th
. - note dotted
|-n-|  - n-tuplets


Tablature Legend
----------------
L - tied note
x - dead note
g - grace note
h - hammer on
p - pull off
b - bend
br - bendRelease
pb - preBend
S - shift slide
s - legato slide
/ -  slide into from below or out of upwards
\ -  slide into from above or out of downwards
~ - vibrato

Almost there ...

Sign in to get your own page with links to favourite songs and more. You are just one click away...

Login with Facebook Login with Google