Awan Nano by Hafiz

Awan Nano tab by Hafiz

Solo guitar tabs

Solo:
     C       Am        Em         F      G
e|---------------------------------------------------------------------------|
B|---------------------10--------------10--------------17-18-20-18-17-15-18--|
G|--------9~---9-10-12----9~---9-10-12----12~----17-19-----------------------|
D|--10h12--------------------------------------------------------------------|
A|---------------------------------------------------------------------------|
E|---------------------------------------------------------------------------|

                 C
e|---------------------------------------------------------------------------|
B|--17-15-13-17-15-13-12-15-13-12-13-13~-------------------------------------|
G|---------------------------------------------------------------------------|
D|---------------------------------------------------------------------------|
A|---------------------------------------------------------------------------|
E|---------------------------------------------------------------------------|


************************************

| ~ Vibrato
| h Hammer-on

Other versions of Awan Nano

Alternative guitar chords and tabs for Awan Nano by Hafiz

Find guitar tabs and chords

A B C D E F G H I J K L M N O P Q R S T U V W X Y Z #